Kiss

home > Kiss

Rock and Roll All Nite Bass Tab

Kiss

Difficulty: BeginnerBeginner

by DOUGLAS%28ACS%29

tuner correct add songbook print version text version save to e-mail
chordsukulelecavacokeyboardtabbassdrummharmonicsflute Guitar Pro
chords

Rock and Roll All Nite

Year: 1978 - Album: Gold

(Paul Stanley/ Gene Simmons)

	  Intro 

|----------------------------------------------------------------| 
|9h11--9h11----11-11---5-6--6-6-6------------6--6-6-6-----------5| 
|-----------11-------8-------------6--6-6-6------------6--6-6-8--| 
|----------------------------------------------------------------| 

Verso 


|----5-8---5----------------5-8---5------------------------------| 
|-6------6-------5-8---5-6------6-------5-8----------------------| 
|-------------6------6---------------6------6--------------------| 
|----------------------------------------------------------------| 


|----------------------------------------------------------------| 
|-----------------------9h11--9h11------11-11----5---------------| 
|-4--3------6--4-3------------------11---------8-----------------| 
|------6-4---------6---------------------------------------------| 


|----5-8---5----------------5-8---5------------------------------| 
|-6------6-------5-8---5-6------6-------5-8----------------------| 
|-------------6------6---------------6------6--------------------| 
|----------------------------------------------------------------| 


|----------------------------------------------------------------| 
|-----------------------9h11--9h11------11-11--------------------| 
|-4--3------6--4-3------------------11---------9-----------------| 
|------6-4---------6---------------------------------------------| 


Bridge 

|----------------------------------------------------------------| 
|----------------------------------------------------------------| 
|-7--7-7-7-7-7-7---9--9-9-9-9-7----------------------------------| 
|-------------------------------9\2------------------------------| 


Refrão 

|----------------------------------------------------------------| 
|--6----------------------6--------------------------------------| 
|------4-3------6-4-3---------4-3------6-4-3---------------------| 
|----------6-4--------6-----------6-4--------6-------------------| 



Final 

|-4-3----4-3----4-3----4-3---------------------------------------| 
|-----6------6------6------6--4-4--6-----------------------------| 
|----------------------------------------------------------------| 
|----------------------------------------------------------------| 

	  

there isn't a video lesson for this song

request
Search
auto scroll beats size up size down change color hide chords drawings
tab show chords e-chords YouTube Clip e-chords hide all tabs e-chords go to top tab