King Gizzard & The Lizard Wizard

Tetrachromacy Bass Tab

King Gizzard & The Lizard Wizard

Difficulty: nolevelnolevel

by tarikike

tuner correct add songbook print version text version save to e-mail
chordsukulelecavacokeyboardtabbassdrumsharmonicsflute Guitar Pro
close

there isn't a video lesson for this song

request
chords

Tetrachromacy

  		
Intro 
Wait until 0:28 

Verse 
G|---------------------6-7-9------------------------7-9-----|                 
D|9----9----9----9-----------7-9----9----9----9---------9---|                  
A|----------------------------------------------------------|                  
E|----------------------------------------------------------|                  
                                                                                x2 
G|---------------------6-7--------------------------7-9--------------------|   
D|9----9----9----9---------7-8-9----9----9----9---------9---9-11-9---7-9-9-|   
A|-----------------------------------------------------------------9-------|   
E|-------------------------------------------------------------------------|  

G|7-9--------------------| 
D|----9---9-11-9---7-9-9-| 
A|---------------9-------| 
E|-----------------------| 

Chorus 
G|7-9--------------------| 
D|----9---9-11-9---7-9-9-| 
A|---------------9-------| x4 
E|-----------------------| 

Verse 
G|---------------------6-7-9------------------------7-9-----|                 
D|9----9----9----9-----------7-9----9----9----9---------9---|                  
A|----------------------------------------------------------|                  
E|----------------------------------------------------------|                  
                                                                                x2 
G|---------------------6-7--------------------------7-9--------------------|   
D|9----9----9----9---------7-8-9----9----9----9---------9---9-11-9---7-9-9-|   
A|-----------------------------------------------------------------9-------|   
E|-------------------------------------------------------------------------|  

G|7-9--------------------| 
D|----9---9-11-9---7-9-9-| 
A|---------------9-------| 
E|-----------------------| 

Chorus 
G|7-9--------------------| 
D|----9---9-11-9---7-9-9-| 
A|---------------9-------| x4 
E|-----------------------| 

G|---------------| 
D|9-11-----------| 
A|-----9-10-9-7--| x4 
E|---------------| 

Bridge 
G|---------7-9-------| 
D|-------------7---9-| 
A|-------------------| 
E|-------------------| 

Rest until 2:45 
G|---------6-7-------| 
D|-------------7-8-9-| 
A|-------------------| 
E|-------------------| 

G|7-9--------------------| 
D|----9---9-11-9---7-9-9-| 
A|---------------9-------| x2 
E|-----------------------| 

Chorus 
G|7-9--------------------| 
D|----9---9-11-9---7-9-9-| 
A|---------------9-------| x4 
E|-----------------------| 

G|---------------| 
D|9-11-----------| 
A|-----9-10-9-7--| x4 
E|---------------| 
	  

Search Paypal
auto scroll beats size up size down change color hide chords drawings
tab show chords e-chords YouTube Clip e-chords hide all tabs e-chords go to top tab

share with facebook