King Gizzard & The Lizard Wizard

Crumbling Castle Bass Tab

King Gizzard & The Lizard Wizard

Difficulty: nolevelnolevel

by hugo%5Frodrigues

tuner correct add songbook print version text version save to e-mail
chordsukulelecavacokeyboardtabbassdrumsharmonicsflute Guitar Pro
close

there isn't a video lesson for this song

request
chords

Crumbling Castle

  		PART 1 

Intro 

G|--------------| 
D|--------------| 
A|2----2------2-| x20 
E|--------------| 

Guitar Intro 

G|--------------| 
D|--------------| 
A|2-------------| 
E|--------------| 


Chorus B 

G|----------------------------------------| 
D|----------------------------------------| 
A|---4----4----5----5----7----7----9----9-| 
E|2-----2---3-----3---5-----5---7-----7---| 

G|----------| 
D|----------| 
A|----------| x4 
E|7---------| 


Chorus A 

G|---4--2-4-| 
D|----------| 
A|2---------| x16 
E|----------| 

Chorus B 

G|----------|----------|----------|----------| 
D|----------|----------|----------|----------| 
A|---4----4-|---5----5-|---7----7-|---9----9-| x2 
E|2-----2---|3-----3---|5-----5---|7-----7---| 

G|----------| 
D|----------| 
A|----------| x4 
E|7---------| 


PART 2 

Verse 

G|---6-6-4-6| 
D|----------| 
A|4---------| x22 
E|----------| 

G|------5---| 
D|--3-7---7-| 
A|5---------| 
E|----------| 

Chorus A 

G|---4--2-4-| 
D|----------| 
A|2---------| x16 
E|----------| 

Chorus B 

G|----------------------------------------| 
D|----------------------------------------| 
A|---4----4----5----5----7----7----9----9-| x2 
E|2-----2---3-----3---5-----5---7-----7---| 

G|----------| 
D|----------| 
A|----------| x4 
E|7---------| 


PART 3 

Repeat Intro 

G|--------------| 
D|--------------| 
A|2----2------2-| x20 
E|--------------| 

Guitar Intro 2 

G|--------------| 
D|--------------| 
A|2-------------|   EXTRA QUAVER HERE 
E|--------------| 

Simple Progression 

G|----------------------------| 
D|----------------------------| 
A|2------5------7------9------| 
E|----------------------------| 

Verse 

G|------------------------------------------| 
D|---4-4--4-4----4-4--4-4----4-4--4-4---4-4-| 
A|------------------------------------------| 
E|2-----2-----2-----2-----2-----2-----2-----| 

Simple Progression 2 

G|----------------------------| 
D|----------------------------| 
A|----------------------------| 
E|2------5------7------9------| 
	  

Full key step upFull key step up
Half key step upHalf key step up
Half key step downHalf key step down
Full key step downFull key step down
Search Paypal
auto scroll beats size up size down change color hide chords drawings
tab show chords e-chords YouTube Clip e-chords hide all tabs e-chords go to top tab

share with facebook