Kelley Stoltz

Are You My Love

Kelley Stoltz

bass

by  JOAOEWERTON

save to print version add songbook text version e-mail correct tuner
chordsukulelecavacokeyboardtabbassdrumsharmonicaflute Guitar Pro
close

there isn't a video lesson for this song

chords

Are You My Love

	  		
Intro 
G|-----------|----------|----------|----------|----------|----------|----------|----------| 
D|--55555555-|-55555555-|-55555555-|-55555555-|-33333333-|----------|-55555555-|-55555555-| 
A|-----------|----------|----------|----------|----------|-33333333-|----------|----------| 
E|-----------|----------|----------|----------|----------|----------|----------|----------|(x2) 

Verse 
G|-----------|----------|----------|----------|----------|----------|----------|----------| 
D|--55555555-|-55555555-|-55555555-|-55555555-|-33333333-|----------|-55555555-|-55555555-| 
A|-----------|----------|----------|----------|----------|-33333333-|----------|----------| 
E|-----------|----------|----------|----------|----------|----------|----------|----------| 

G|-----------|----------|----------|----------|----------|----------|----------|----------| 
D|--55555555-|-55555555-|-55555555-|-55--55---|-33333355-|----------|-55555555-|-55555555-| 
A|-----------|----------|----------|---77--77-|----------|-33333333-|----------|----------| 
E|-----------|----------|----------|----------|----------|----------|----------|----------| 

Chorus 
G|-----------|----------|----------|----------|----------|----------|----------|----------| 
D|--77777777-|----------|----------|-55555555-|-77777799-|----------|----------|-55555555-| 
A|-----------|-77777777-|-33333333-|----------|----------|-77777777-|-33333333-|----------| 
E|-----------|----------|----------|----------|----------|----------|----------|----------| 

G|-------5---|------5---|------5---|------5---| 
D|--33333-33-|-33333-33-|-33333-33-|-33333-33-| 
A|-----------|----------|----------|----------| 
E|-----------|----------|----------|----------| 

Verse 
G|-----------|----------|----------|----------|----------|----------|----------|----------| 
D|--55555555-|-55555555-|-55555555-|-55555555-|-33333333-|----------|-55555555-|-55555555-| 
A|-----------|----------|----------|----------|----------|-33333333-|----------|----------| 
E|-----------|----------|----------|----------|----------|----------|----------|----------| 

G|-----------|----------|----------|----------|----------|----------|----------|----------| 
D|--55555555-|-55555555-|-55555555-|-55--55---|-33333355-|----------|-55555555-|-55555555-| 
A|-----------|----------|----------|---77--77-|----------|-33333333-|----------|----------| 
E|-----------|----------|----------|----------|----------|----------|----------|----------| 

Chorus 
G|-----------|----------|----------|----------|----------|----------|----------|----------| 
D|--77777777-|----------|----------|-55555555-|-77777799-|----------|----------|-55555555-| 
A|-----------|-77777777-|-33333333-|----------|----------|-77777777-|-33333333-|----------| 
E|-----------|----------|----------|----------|----------|----------|----------|----------| 

G|-------5---|------5---|------5---|------5---| 
D|--33333-33-|-33333-33-|-33333-33-|-33333-33-| 
A|-----------|----------|----------|----------| 
E|-----------|----------|----------|----------| 

Solo 
G|-----------|----------|----------|----------|----------|----------|----------|----------| 
D|--55555555-|-55555555-|-55555555-|-55555555-|-33333333-|----------|-55555555-|-55555555-| 
A|-----------|----------|----------|----------|----------|-33333333-|----------|----------| 
E|-----------|----------|----------|----------|----------|----------|----------|----------|(x2) 

Bridge 
G|-----------|----------|----------|----------| 
D|--77777777-|-77777777-|-55555555-|-55555555-| 
A|-----------|----------|----------|----------| 
E|-----------|----------|----------|----------|(x3) 

G|-----------|----------|----------|----------| 
D|--33333333-|-33333333-|-33333333-|-33333333-| 
A|-----------|----------|----------|----------| 
E|-----------|----------|----------|----------| 

Final Verse/Chorus 
G|-----------|----------|----------|----------|----------|----------|----------|----------| 
D|--55555555-|-55555555-|-55555555-|-55555555-|-33333333-|----------|-55555555-|-55555555-| 
A|-----------|----------|----------|----------|----------|-33333333-|----------|----------| 
E|-----------|----------|----------|----------|----------|----------|----------|----------| 

G|-----------|----------|----------|----------|----------|----------|----------|----------| 
D|--55555555-|-55555555-|-55555555-|-55--55---|-33333355-|----------|-55555555-|-55-------| 
A|-----------|----------|----------|---77--77-|----------|-33333333-|----------|---557788-| 
E|-----------|----------|----------|----------|----------|----------|----------|----------| 

G|-----------|----------|----------|----------|----------|----------|----------|----------| 
D|--55555555-|-55555555-|-55555555-|-55555555-|-33333333-|----------|-55555555-|-55555555-| 
A|-----------|----------|----------|----------|----------|-33333333-|----------|----------| 
E|-----------|----------|----------|----------|----------|----------|----------|----------| 

G|-----------|----------|----------|----------|----------|----------|----------| 
D|--55555555-|-55555555-|-55555555-|-55555555-|-33333333-|----------|-5--------| 
A|-----------|----------|----------|----------|----------|-33333333-|----------| 
E|-----------|----------|----------|----------|----------|----------|----------| 
		  

See also:

bass Pink - Feel Good Times bass Placebo - Every You, Every Me bass My Chemical Romance - Ghost of you bass Delirious - Fire bass Yellowcard - Ocean Avenue bass Delirious - History Maker
e-chords

Other versions:

bass Kelley Stoltz - Are You My Love
auto scroll beats size up size down change color hide chords drawings
tab show chords e-chords YouTube Clip e-chords hide all tabs e-chords go to top tab

share