KC and The Sunshine Band

Boogie Shoes

KC and The Sunshine Band

bass

by  RENEJUNIOR

save to print version add songbook text version e-mail correct tuner
chordsukulelecavacokeyboardtabbassdrumsharmonicaflute Guitar Pro
close

there isn't a video lesson for this song

chords

Boogie Shoes

	  		
Intro 
                                    ( x2 ) 
G |-----------------||-----------------|-----------------| 
D |-----------------||-----------------|-----------------| 
A |-------------6-5-||-------------6-5-|-------------6-5-| 
E |-r---------------||-6-r-------------|-6-r-------------| 
    1 & 2 & 3 & 4 &    1 & 2 & 3 & 4 &   1 & 2 & 3 & 4 & 


verse 1 

G |-----------------|-----------------|-----------------|-----------------| 
D |-----------------|-----------------|-----------------|-----------------| 
A |-------------6-5-|-------------6-5-|-------------6-5-|-------------6-5-| 
E |-6-r-------------|-6-r-------------|-6-r-------------|-6-r-------------| 
    1 & 2 & 3 & 4 &   1 & 2 & 3 & 4 &   1 & 2 & 3 & 4 &   1 & 2 & 3 & 4 & 

G |-----------------|-----------------|-----------------|-----------------| 
D |-------------6-5-|-------------6-5-|-----------------|-----------------| 
A |-6-r-------------|-6-r-------------|-------------6-5-|-------------5-6-| 
E |-----------------|-----------------|-6-r-------------|-6-r-------------| 
    1 & 2 & 3 & 4 &   1 & 2 & 3 & 4 &   1 & 2 & 3 & 4 &   1 & 2 & 3 & 4 & 


Chorus 1 (x2):                                           _________________ _________________ 
                                                        /1                /2 
G |-----------------|-----------------|-----------------|-----------------|-----------------| 
D |-----------------|-----------------|-----------------|-----------------|-----------------| 
A |-8-r-------------|-6-r-------------|-------------6-5-|-------------5-6-|-------------6-5-| 
E |-----------------|-----------------|-6-r-------------|-6-r-------------|-6-r-------------| 
    1 & 2 & 3 & 4 &   1 & 2 & 3 & 4 &   1 & 2 & 3 & 4 &   1 & 2 & 3 & 4 &   1 & 2 & 3 & 4 & 


verse 2 

G |-----------------|-----------------|-----------------|-----------------| 
D |-----------------|-----------------|-----------------|-----------------| 
A |-------------6-5-|-------------6-5-|-------------6-5-|-------------6-5-| 
E |-6-r---6-r-------|-6-r---6-r-------|-6-r---6-r-------|-6-r---6-r-------| 
    1 & 2 & 3 & 4 &   1 & 2 & 3 & 4 &   1 & 2 & 3 & 4 &   1 & 2 & 3 & 4 & 

G |-----------------|-----------------|-----------------|-----------------| 
D |-------------6-5-|-------------6-5-|-----------------|-----------------| 
A |-6-r---6-r-------|-6-r---6-r-------|-------------6-5-|-------------5-6-| 
E |-----------------|-----------------|-6-r---6-r-------|-6-r---6-r-------| 
    1 & 2 & 3 & 4 &   1 & 2 & 3 & 4 &   1 & 2 & 3 & 4 &   1 & 2 & 3 & 4 & 


Chorus 2 

G |-----------------|-----------------|-----------------|-----------------| 
D |-----------------|-----------------|-----------------|-----------------| 
A |-8-----8---------|-6-----------6-5-|-------------6-5-|-------------5-6-| 
E |-----------------|-----------------|-6-r---6-r-------|-6-r---6-r-------| 
    1 & 2 & 3 & 4 &   1 & 2 & 3 & 4 &   1 & 2 & 3 & 4 &   1 & 2 & 3 & 4 & 

G |-----------------|-----------------|-----------------|-----------------| 
D |-----------------|-----------------|-----------------|-----------------| 
A |-8-----8---------|-6---------------|-------------6-5-|-------------6-5-| 
E |-----------------|-----------------|-6-r---6-r-------|-6-r---6-r-------| 
    1 & 2 & 3 & 4 &   1 & 2 & 3 & 4 &   1 & 2 & 3 & 4 &   1 & 2 & 3 & 4 & 


Interlude 

G |-----------------|-----------------|-----------------|-----------------| 
D |-----------------|-----------------|-----------------|-----------------| 
A |-------------6-5-|-------------6-5-|-------------6-5-|-------------6-5-| 
E |-6-r---6-r-------|-6-r---6-r-------|-6-r---6-r-------|-6-r---6-r-------| 
    1 & 2 & 3 & 4 &   1 & 2 & 3 & 4 &   1 & 2 & 3 & 4 &   1 & 2 & 3 & 4 & 

G |-----------------|-----------------|-----------------|-----------------| 
D |-------------6-5-|-------------6-5-|-----------------|-----------------| 
A |-6-r---6-r-------|-6-r---6-r-------|-------------6-5-|-------------5-6-| 
E |-----------------|-----------------|-6-r---6-r-------|-6-r---6-r-------| 
    1 & 2 & 3 & 4 &   1 & 2 & 3 & 4 &   1 & 2 & 3 & 4 &   1 & 2 & 3 & 4 & 


OUT-Chorus: 

G |-----------------|-----------------|-----------------|-----------------| 
D |-----------------|-----------------|-----------------|-----------------| 
A |-8-----8---------|-6---------------|-------------6-5-|-------------5-6-| 
E |-----------------|-------------5-r-|-6-r---6-r-------|-6-r---6-r-------| 
    1 & 2 & 3 & 4 &   1 & 2 & 3 & 4 &   1 & 2 & 3 & 4 &   1 & 2 & 3 & 4 & 

G |-----------------|-----------------|-----------------|-----------------| 
D |-------------5-r-|-----------6-5---|-----------------|-----------------| 
A |-8-----8---------|-6---------------|-----------------|-------------5-6-| 
E |-----------------|---------------5-|-6-r---6-r-------|-6-r---6-r-------| 
    1 & 2 & 3 & 4 &   1 & 2 & 3 & 4 &   1 & 2 & 3 & 4 &   1 & 2 & 3 & 4 & 

G |-----------------|-----------------|-----------------|-----------------| 
D |-------------5---|-----------------|-----------------|-----------------| 
A |-8-----8-------8-|-6-----------6-5-|-------------6-5-|-------------5-6-| 
E |-----------------|-----------------|-6-r---6-r-------|-6-r---6-r-------| 
    1 & 2 & 3 & 4 &   1 & 2 & 3 & 4 &   1 & 2 & 3 & 4 &   1 & 2 & 3 & 4 & 

G |-----------------|-----------------|-----------------|-----------------| 
D |-----------------|-----------------|-----------------|-----------------| 
A |-8-----8---------|-6-----------6-5-|-------------6-5-|-------------5-6-| 
E |-----------------|-----------------|-6-r---6-r-------|-6-r---6-r-------| 
    1 & 2 & 3 & 4 &   1 & 2 & 3 & 4 &   1 & 2 & 3 & 4 &   1 & 2 & 3 & 4 & 

G |-----------------|-----------------|-----------------|-----------------| 
D |-----------------|-----------------|-----------------|-----------------| 
A |-8-----8---------|-6---------0-6-5-|-------------6-5-|-----------------| 
E |-----------------|-----------------|-6-r---6-r-------|-6-r-------------| 
    1 & 2 & 3 & 4 &   1 & 2 & 3 & 4 &   1 & 2 & 3 & 4 &   1 & 2 & 3 & 4 & 



************************************ 

| r  Release 

************************************ 
		  

See also:

bass Black Eyed Peas - where is the love bass Drake bell - Makes Me Happy Bass bass Michael Jackson - Beat it bass Collective Soul - Simple bass Yellowcard - Down on my head bass Yellowcard - Believe
e-chords

Other versions:

bass KC and The Sunshine Band - Boogie Shoes
auto scroll beats size up size down change color hide chords drawings
tab show chords e-chords YouTube Clip e-chords hide all tabs e-chords go to top tab

share