Juanes

home > Juanes

Volverte a ver Bass Tab

Juanes

Difficulty: nolevelnolevel

by gruol

tuner correct add songbook print version text version save to e-mail
chordsukulelecavacokeyboardtabbassdrumsharmonicsflute Guitar Pro
chords

Volverte a ver

Year: 2004 - Album: Mi Sangre

  		soles gusta  el baixo a i les va  toquenla 
bien : 
INTRO: 
Este es el bajo básico que va en las estrofas: 
 
G|--------------------------|-3-1----------------------| 
D|-4-3-1----------------4-6-|-----4-3-1----------------| 
A|-------4-2-1------4-6-----|-----------4-2--4-2-1-----| 
E|-------------4-2----------|----------------------4-2-| 
 
G|--------------------------|-3-1-----------------| 
D|-4-3-1----------------4-6-|-----4-3-1-----------| 
A|-------4-2-1------4-6-----|-----------4-2-1-----| 
E|-------------4-2----------|-----------------4-2-| 
 
 
Después sigue la parte fuerte que va con F# C# B F# para que luego los bajos de C# 
le den la entrada al coro. 
 
 
En el coro se acompaña con: 
 
  Volverte a ver, es todo lo que quiero hacer, 
  Volverte a ver, para poderme reponer... 
G|------------------------|------------------------| 
D|--4-3-4-------------4-3-|--4-3-4-------------4-3-| 
A|-4-------4-4-4-2-2-4----|-4-------4-4-4-2-2-4----| 
E|------------------------|------------------------| 
 
  Por que sin tí, mi vida yo no soy feliz, 
  Por que sin ti, mi vida no tiene raíz... 
  Ni una razón para vivir... 
G|------------------------|-------------------------| 
D|--4-3-4-----------1-----|--4-3-4-----------1------| 
A|-4-------4-4-4-2-2-2----|-4-------4-4-4-2-4-2-----| 
E|--------------------4---|--------------------4----| 
 
G|----------------| 
D|----1-3--1------| 
A|-2-4------4-2-1-| 
E|----------------| 
 
les guste  chau 02/02/02 

	  

Full key step upFull key step up
Half key step upHalf key step up
Half key step downHalf key step down
Full key step downFull key step down
Search Paypal
auto scroll beats size up size down change color hide chords drawings
tab show chords e-chords YouTube Clip e-chords hide all tabs e-chords go to top tab