Josh Groban

Silent Night

Josh Groban

bass

by  ALEFFEDERICO

save to print version add songbook text version e-mail correct tuner
chordsukulelecavacokeyboardtabbassdrumsharmonicaflute Guitar Pro
close

there isn't a video lesson for this song

chords

Silent Night

	  		
(Silent Night tabbed by Gabriel Nave) 

A|----0---------0---------5-5-2-3-3-----------------------------3----------------5-5-8-7-5-3-7--| 
E|--3---3-----3---3-----------------3---5-5-8-7-5-3-5-3-----5-5----7-5-3-5-3--------------------| 
C|--------4---------4-----------------------------------4--------------------4------------------| 
G|----------------------------------------------------------------------------------------------| 

A|--3-------------| 
E|----3---3-1-0---| 
C|------4-------0-| 
G|----------------| 
		  

See also:

bass Josh Groban - Silent Night bass Roger Daltrey - As Long As I Have You bass Kool & The Gang - Celebration bass Paolo Nutini - Last Request bass Rick James - Dance With Me
e-chords

Other versions:

bass Josh Groban - Silent Night bass Children Of Bodom - Silent Night Bodem Night bass Andy Williams - Silent Night Holy Night
auto scroll beats size up size down change color hide chords drawings
tab show chords e-chords YouTube Clip e-chords hide all tabs e-chords go to top tab

share