Jonas Brothers

home > Jonas Brothers

6 Minutes Bass Tab

Jonas Brothers

Difficulty: BeginnerBeginner

by joaoewerton

tuner correct add songbook print version text version save to e-mail
chordsukulelecavacokeyboardtabbassdrumsharmonicsflute Guitar Pro
chords

6 Minutes

Year: 2006 - Album: It's About Time

  		Tabbed By : Valerie L. 
e-mail:  [email protected] 
Tuning: standard 

Verse 
G|-------------------------5-|----------7------------5-| 
D|----5----7-------------5---|----5---7------------5---| 
A|--5----5---5--7---7--3-----|--5---5-----7---7--3-----| 
E|3---------------7----------|3-------------7----------| 

G|--------------------------|--------------------| 
D|----5---------------------|----5---------------| 
A|--5----5---5--7---7--3---3|--5----5---5-7---7--| 
E|3--------5------7------3--|3--------5-----7----| 

Chorus 
G|-------------------------------------------------------------------------| 
D|-------------------------------------------------------------------------| 
A|3333333333333/5555-77777777777775555-3333333333333/5555----------55555555| 
E|--------------------------------------------------------33333333---------|x2 

G|-----------------| 
D|------22-44-5~---| 
A|33-55------------| 
E|-----------------| 

Verse 
G|-------------------------5|--------------------------5-| 
D|--5--------------------5--|-----5------------------5---| 
A|5---5--5---5--7---7--3----|---5----5---5--7---7--3-----| 
E|---------5------7---------|-3--------5------7----------| 

G|------------7------------5-------------7---------| 
D|-----5----7------------5--------5----7-----------| 
A|---5----5-----7---7--3--------5----5-----7---7---| 
E|-3--------------7-----------3--------------7-----| 

Chorus x2 

G|-----------------| 
D|------22-44-5~---| 
A|33-55------------| 
E|-----------------| 

Bridge 
G|---------------| 
D|-------22-44---| 
A|-33-55---------| 
E|---------------| 

Chorus x4 

Outro 
G|---------------22-44-55-0| 
D|------22-44-55-----------| 
A|33-55--------------------| 
E|-------------------------| 

	  

Search Paypal
auto scroll beats size up size down change color hide chords drawings
tab show chords e-chords YouTube Clip e-chords hide all tabs e-chords go to top tab