John Mayall

home > John Mayall

Oh Pretty Woman Bass Tab

John Mayall

Difficulty: nolevelnolevel

by ang%2Dletra

tuner correct add songbook print version text version save to e-mail
chordsukulelecavacokeyboardtabbassdrumsharmonicsflute Guitar Pro
chords

Oh Pretty Woman

  		Intro 
G|--------------|--------2---------------| 
D|-------2--3---|--4--4-----4-----2--3---| 
A|----4---------|--------------4---------| 
E|--------------|------------------------| 

Main Riff 
          PRETTY WOMAN........           WHAT'S THE MATTER WITH YOU? 
G|--------2--3--|-----------------------|---------------------------| 
D|--4--4--------|--------0--------------|--------0--0--------2--3---| 
A|--------------|--2--2-----2-----0--1--|--2--2--------2--4---------| 
E|--------------|--------------2--------|---------------------------| 

                                            CAN'T MAKE YOU LOVE ME..... 
G|--------2--2--------------|--------2--2--------------|---------------------------| 
D|--4--4--------4-----2--3--|--4--4--------4-----------|--------2------------------| 
A|-----------------4--------|--------------------2--3--|--4--4---------4-----2--3--| 
E|--------------------------|-----------------4--------|------------------4--------| 

     NO MATTER WHAT I         DO 
G|---------------------------|------------------------------| 
D|--------2--2---------2-----|--4-------4-------4--------4--| 
A|--4--4---------4--4-----4--|------------------------------| 
E|---------------------------|------------------------------| 

G|-------------------------------| 
D|--4-------4-------4------2--3--| 
A|----------------------4--------| 
E|-------------------------------| 
	  

Search Paypal
auto scroll beats size up size down change color hide chords drawings
tab show chords e-chords YouTube Clip e-chords hide all tabs e-chords go to top tab