John Lennon

home > John Lennon

Be My Baby Bass Tab

John Lennon

Difficulty: EasyEasy

by europeu

tuner correct add songbook print version text version save to e-mail
chordsukulelecavacokeyboardtabbassdrumsharmonicsflute Guitar Pro
chords

Be My Baby

  		INTRO 

  00:00 

G|---------------------------------|---------------------------------| 
D|---------------------------------|---------------------------------| 
A|---------------------------------|---------------------------------| 
E|---------------------------------|---------------------------------| 



G|---------------------------------|---------------------------------| 
D|---------------------------------|---------------------------------| 
A|---------------------------------|---------------------------------| 
E|---------------------------------|---------------------------------| 



G|---------------------------------|---------------------------------| 
D|---------------------------------|---------------------------------| 
A|---------------------------------|---------------------------------| 
E|---------------------------------|---------------------------------| 



G|---------------------------------|---------------------------------| 
D|---------------------------------|---------------------------------| 
A|---------------------------------|---------------------------------| 
E|---------------------------------|---------------------------------| 


  00:22 

G|---------------------------------|---------------------------------| 
D|---------------------------------|---------------------------------| 
A|-3---3---3---5---3---------------|-3---3---3---5---3---------------| 
E|-------------------------3-------|-------------------------3-------| 



G|---------------------------------|---------------------------------| 
D|---------------------------------|---------------------------------| 
A|-5---5---5---7---5---------------|-5---5---5---7---5---------------| 
E|-------------------------5-------|-------------------------3-------| 



G|---------------------------------|---------------------------------| 
D|---------------------------------|---------------------------------| 
A|-3---3---3---5---3---------------|-3---3---3---5---3---------------| 
E|-------------------------3-------|-------------------------3-------| 



G|---------------------------------|---------------------------------| 
D|---------------------------------|---------------------------------| 
A|-5---5---5---7---5---------------|-5---5---5---7---5---------------| 
E|-------------------------5-------|-------------------------3-------| 



G|---------------------------------|---------------------------------| 
D|---------------------------------|---------------------------------| 
A|-3---3---3---5---3---------------|-3---3---3---5---3---------------| 
E|-------------------------3-------|-------------------------3-------| 



G|---------------------------------|---------------------------------| 
D|---------------------------------|---------------------------------| 
A|-5---5---5---7---5---------------|-5---5---5---7---5---------------| 
E|-------------------------5-------|-------------------------3-------| 



G|---------------------------------|---------------------------------| 
D|---------------------------------|---------------------------------| 
A|-3---3---3---5---3---------------|-3---3---3---5---3---------------| 
E|-------------------------3-------|-------------------------3-------| 



G|---------------------------------|---------------------------------| 
D|---------------------------------|---------------------------------| 
A|-5---5---5---7---5---------------|-5---5---5---7---5---------------| 
E|-------------------------5-------|-------------------------3-------| 



G|---------------------------------|---------------------------------| 
D|---------------------------------|---------------------------------| 
A|-3---3---3---5---3---------------|-3---3---3---5---3---------------| 
E|-------------------------3-------|-------------------------3-------| 



G|---------------------------------|---------------------------------| 
D|---------------------------------|---------------------------------| 
A|-5---5---5---7---5---------------|-5---5---5---7---5---------------| 
E|-------------------------5-------|-------------------------3-------| 



VERSE 

  01:16 

G|---------------------------------|---------------------------------| 
D|---------------------------------|---------------------------------| 
A|-3---3---3---5---3---------------|-3---3---3---5---3---------------| 
E|-------------------------3-------|-------------------------3-------| 



G|---------------------------------|---------------------------------| 
D|---------------------------------|---------------------------------| 
A|-5---5---5---7---5---------------|-5---5---5---7---5---------------| 
E|-------------------------5-------|-------------------------3-------| 



G|---------------------------------|---------------------------------| 
D|---------------------------------|---------------------------------| 
A|-3---3---3---5---3---------------|-3---3---3---5---3---------------| 
E|-------------------------3-------|-------------------------3-------| 



G|---------------------------------|---------------------------------| 
D|---------------------------------|---------------------------------| 
A|-5---5---5---7---5---------------|-5---5---5---7---5---------------| 
E|-------------------------5-------|-------------------------3-------| 



PRE-Chorus 

  01:37 

G|---------------------------------|---------------------------------| 
D|---------------------------------|---------------------------------| 
A|-7-----------7---7-----------7---|-7---------------7-------7-------| 
E|---------------------------------|---------------------------------| 



G|---------------------------------|---------------------------------| 
D|---------------------------------|---------------------------------| 
A|---------------------------------|---------------------------------| 
E|-5-----------5---5-----------5---|-5-----------5---5-----------5---| 



G|---------------------------------|---------------------------------| 
D|---------------------------------|---------------------------------| 
A|-5-----------5---5-----------5---|-5-----------5---5---------------| 
E|---------------------------------|---------------------------------| 



G|---------------------------------|---------------------------------| 
D|---------------------------------|---------------------------------| 
A|---------------------------------|-------------------------2-------| 
E|-3-----------3---3-----------3---|-3-----------3---5---------------| 



Chorus 

  01:58 

G|---------------------------------|---------------------------------| 
D|---------------------------------|---------------------------------| 
A|-3-----------5---3---------------|-3---3-------5---3---------------| 
E|-------------------------3-------|-------------------------3-------| 



G|---------------------------------|---------------------------------| 
D|---------------------------------|---------------------------------| 
A|---------------------------------|---------------------------------| 
E|-5-------5---7---5-------0-------|-5-----------7---5-------0-------| 



G|---------------------------------|---------------------------------| 
D|-3-------3---5---3---------------|-3---3---3---5---3---------------| 
A|-------------------------3-------|-------------------------3-------| 
E|---------------------------------|---------------------------------| 



G|---------------------------------|---------------------------------| 
D|---------------------------------|---------------------------------| 
A|---------------------------------|---------------------------------| 
E|-3-----------3---3-----------3---|-3-----------3---3-------5-------| 



INTERLUDE 

  02:19 

G|---------------------------------|---------------------------------| 
D|---------------------------------|---------------------------------| 
A|---------------------------------|---------------------------------| 
E|---------------------------------|---------------------------------| 



G|---------------------------------|---------------------------------| 
D|---------------------------------|---------------------------------| 
A|---------------------------------|---------------------------------| 
E|---------------------------------|---------------------------------| 



G|---------------------------------|---------------------------------| 
D|---------------------------------|---------------------------------| 
A|---------------------------------|---------------------------------| 
E|---------------------------------|---------------------------------| 



G|---------------------------------|---------------------------------| 
D|---------------------------------|---------------------------------| 
A|---------------------------------|---------------------------------| 
E|---------------------------------|---------------------------------| 


  02:40 

G|---------------------------------|---------------------------------| 
D|---------------------------------|---------------------------------| 
A|-3---3---3---5---3---------------|-3---3---3---5---3---------------| 
E|-------------------------3-------|-------------------------3-------| 



G|---------------------------------|---------------------------------| 
D|---------------------------------|---------------------------------| 
A|-5---5---5---7---5---------------|-5---5---5---7---5---------------| 
E|-------------------------5-------|-------------------------3-------| 



G|---------------------------------|---------------------------------| 
D|---------------------------------|---------------------------------| 
A|-3---3---3---5---3---------------|-3---3---3---5---3---------------| 
E|-------------------------3-------|-------------------------3-------| 



G|---------------------------------|---------------------------------| 
D|---------------------------------|---------------------------------| 
A|-5---5---5---7---5---------------|-5---5---5---7---5---------------| 
E|-------------------------5-------|-------------------------3-------| 



G|---------------------------------|---------------------------------| 
D|---------------------------------|---------------------------------| 
A|-3---3---3---5---3---------------|-3---3---3---5---3---------------| 
E|-------------------------3-------|-------------------------3-------| 



G|---------------------------------|---------------------------------| 
D|---------------------------------|---------------------------------| 
A|-5---5---5---7---5---------------|-5---5---5---7---5---------------| 
E|-------------------------5-------|-------------------------3-------| 



G|---------------------------------|---------------------------------| 
D|---------------------------------|---------------------------------| 
A|-3---3---3---5---3---------------|-3---3---3---5---3---------------| 
E|-------------------------3-------|-------------------------3-------| 



G|---------------------------------|---------------------------------| 
D|---------------------------------|---------------------------------| 
A|-5---5---5---7---5---------------|-5---5---5---7---5---------------| 
E|-------------------------5-------|-------------------------3-------| 



G|---------------------------------|---------------------------------| 
D|---------------------------------|---------------------------------| 
A|-3---3---3---5---3---------------|-3---3---3---5---3---------------| 
E|-------------------------3-------|-------------------------3-------| 



G|---------------------------------|---------------------------------| 
D|---------------------------------|---------------------------------| 
A|-5---5---5---7---5---------------|-5---5---5---7---5---------------| 
E|-------------------------5-------|-------------------------3-------| 



PRE-Chorus 

  03:32 

G|---------------------------------|---------------------------------| 
D|---------------------------------|---------------------------------| 
A|-7-----------7---7-----------7---|-7-----------7---7---------------| 
E|---------------------------------|---------------------------------| 



G|---------------------------------|---------------------------------| 
D|---------------------------------|-----------------7-------7-------| 
A|---------------------------------|-------------5-------5-------5---| 
E|-5-----------5---5-----------5---|-5-------------------------------| 



G|---------------------------------|---------------------------------| 
D|---------------------------------|---------------------------------| 
A|-5-----------5---------------5---|-------------5-------------------| 
E|---------------------------------|---------------------------------| 



G|---------------------------------|---------------------------------| 
D|---------------------------------|---------------------------------| 
A|---------------------------------|-------------------------2-------| 
E|-3-----------3---3-----------3---|-3---------------5---------------| 



Chorus 

  03:52 

G|---------------------------------|---------------------------------| 
D|---------------------------------|---------------------------------| 
A|-3-----------5---3---------------|-3---3-------5---3---------------| 
E|-------------------------3-------|-------------------------3-------| 



G|---------------------------------|---------------------------------| 
D|---------------------------------|---------------------------------| 
A|---------------------------------|---------------------------------| 
E|-5-----------7---5-------0-------|-5---5-------7---5-------0-------| 



G|---------------------------------|---------------------------------| 
D|-3---3-------5---3---------------|-3---3---3---5---3---------------| 
A|-------------------------3-------|-------------------------3-------| 
E|---------------------------------|---------------------------------| 



G|---------------------------------|---------------------------------| 
D|---------------------------------|---------------------------------| 
A|---------------------------------|-------------------------2-------| 
E|-3---3-------3---3---3-------3---|-3-----------3---5---------------| 



OUTRO 

  04:13 

G|---------------------------------|---------------------------------| 
D|---------------------------------|---------------------------------| 
A|-3---3---3---5---3---------------|-3---3-------5---3---------------| 
E|-------------------------3-------|-------------------------3-------| 



G|---------------------------------|---------------------------------| 
D|---------------------------------|---------------------------------| 
A|---------------------------------|---------------------------------| 
E|-5---5-------7---5-------0-------|-5---5-------7---5-------0-------| 



G|---------------------------------|---------------------------------| 
D|-3---3-------5---3---------------|-3---3-------5---3---------------| 
A|-------------------------3-------|-------------------------3-------| 
E|---------------------------------|---------------------------------| 



G|---------------------------------|---------------------------------| 
D|---------------------------------|---------------------------------| 
A|---------------------------------|---------------------------------| 
E|-3---3-------3---3---3-------3---|-3-----------3---3---------------| 
                                                             FADE OUT 
	  

Search Paypal
auto scroll beats size up size down change color hide chords drawings
tab show chords e-chords YouTube Clip e-chords hide all tabs e-chords go to top tab