Joey Bada$$

Pennyroyal

Joey Bada$$

bass

by  JESSGOMES

save to print version add songbook text version e-mail correct tuner
chordsukulelecavacokeyboardtabbassdrumsharmonicaflute Guitar Pro
close

there isn't a video lesson for this song

chords

Pennyroyal

	  		Main Riff 
G|-------------------------9-10-11-------||------------------7-8-9-----| 
D|-------11-------------11---------11----||-------9--------9-------9---| 
A|----11----11~---11-9~---------------9\-||---------9---7~-----------7-| 
E|--9-----------9------------------------||--7~-------7----------------| 

G|-------------------------9-10-11-------||------------------7-8-9-----| 
D|-------11-------------11---------11----||-------9--------9-------9---| 
A|----11----11~---11-9~---------------9\-||---------9---7~-----------7-| 
E|--9-----------9------------------------||--7~-------7----------------| 



************************************ 

| \  Slide down 
| ~  Vibrato 

************************************ 
		  

See also:

bass Deep Purple - Burn (ver. 2) bass Deep Purple - Smoke On The Water (ver. 3) bass Deep Purple - Strange kind of woman bass Deep Purple - Into The Fire bass Deep Purple - Burn Ver.(2) bass Deep Purple - Smoke On The Water
e-chords

Other versions:

bass Joey Bada$$ - Pennyroyal bass Mf Doom - Pennyroyal bass Nirvana - Pennyroyal Tea bass Nirvana - Pennyroyal Tea (Ver.2)
auto scroll beats size up size down change color hide chords drawings
tab show chords e-chords YouTube Clip e-chords hide all tabs e-chords go to top tab

share