Jerry Reed

One Sweet Reason

Jerry Reed

bass

by  EDSOOLIVEIRA

save to print version add songbook text version e-mail correct tuner
chordsukulelecavacokeyboardtabbassdrumsharmonicaflute Guitar Pro
close

there isn't a video lesson for this song

chords

One Sweet Reason

	  		
0:05 

G|----------------------------------------------------------------| 
D|2---------------------------------------------------------------| 
A|----------------0-----------------------4h6-----4-------2-------| 
E|--------------------------------4-------------------------------| 

G|----------------------------------------------------------------| 
D|--------------------------------2---------------2-----------1---| 
A|0---------------0-----------------------------------2---4-------| 
E|----------------------------------------------------------------| 

G|----------------------------------------------------------------| 
D|2-------2-------------------------------------------------------| 
A|----------------0-------0---------------4h6-----4-------2-------| 
E|--------------------------------4-------------------------------| 

G|------------------------------------------------4---------------| 
D|------------2---2h4-----4-2-------------4-----------------------| 
A|0-------0-------------------4---2-------------------------------| 
E|----------------------------------------------------------------| 

0:26 

G|----------------------------------------------------------------| 
D|----------------------------------------------------------------| 
A|----------------------------------------------------------------| 
E|----------------------------------------------------------------| 

G|----------------------------------------------------------------| 
D|--------------------------------2-------------2-----2---4---6---| 
A|----------------------------------------2---------2-------------| 
E|----------------------------------------------------------------| 

G|----------------------------------------------------------------| 
D|7---------------7---------------7---------------7-------6-------| 
A|--------7---------------7---7-----------7-----------------------| 
E|----------------------------------------------------------------| 

G|----------------------------------------------------------------| 
D|4---------------4-----4---2-------------4---------4---------1---| 
A|--------4-------------------4---2-------------------2---4-------| 
E|----------------------------------------------------------------| 

0:46 

G|----------------------------------------------------------------| 
D|2-------2-------------------------------------------------------| 
A|----------------0-------2---0-----------4h6-----4-------2-------| 
E|--------------------------------4-------------------------------| 

G|--------------------------------| 
D|--------2-------------------1---| 
A|0-------------0-2---2---4-------| 
E|--------------------------------| 

G|----------------------------------------------------------------| 
D|2-----------------------------------------------------------1---| 
A|----------------------------------------------------2-2-4-------| 
E|----------------------------------------------------------------| 

0:59 

G|----------------------------------------------------------------| 
D|2-------2-------------------------------------------------------| 
A|----------------0-----0-2---0-----------4h6-----4-------2-------| 
E|--------------------------------4-------------------------------| 

G|----------------------------------------------------------------| 
D|--------2-----------------------2-------------2---2---------1---| 
A|0---------------0-------0---------------2-----------2---4-------| 
E|----------------------------------------------------------------| 

G|----------------------------------------------------------------| 
D|2-------2-------------------------------------------------------| 
A|----------------0-------2---0-----------4h6-----4-------2-------| 
E|--------------------------------4-------------------------------| 

G|------------------------------------------------4---------------| 
D|------------2---2h4-----4-2-------------4-----------------------| 
A|0-------0-------------------4---2-------------------------------| 
E|----------------------------------------------------------------| 

1:20 

G|----------------------------------------------------------------| 
D|----------------------------------------------------------------| 
A|----------------------------------------------------------------| 
E|----------------------------------------------------------------| 

G|----------------------------------------------------------------| 
D|--------------------------------2-------------2-----2---4---6---| 
A|----------------------------------------2---------2-------------| 
E|----------------------------------------------------------------| 

G|----------------------------------------------------------------| 
D|7---------------7---------------7---------------7-------6-------| 
A|--------7---------------7---7-----------7-----------------------| 
E|----------------------------------------------------------------| 

G|----------------------------------------------------------------| 
D|4---------------4-----4---2-------------4-------------------1---| 
A|--------4-------------------4---2-------------------2---4-------| 
E|----------------------------------------------------------------| 

1:40 

G|----------------------------------------------------------------| 
D|2-------2-------------------------------------------------------| 
A|----------------0-------2---0-----------4h6-----4-------2-------| 
E|--------------------------------4-------------------------------| 

G|--------------------------------| 
D|--------2-------------------1---| 
A|0-----------0---2---2---4-------| 
E|--------------------------------| 

G|----------------------------------------------------------------| 
D|2-----------------------------------------------2-----------1---| 
A|----------------------------------------------------2---4-------| 
E|----------------------------------------------------------------| 

1:53 

G|----------------------------------------------------------------| 
D|2-------2-------------------------------------------------------| 
A|----------------0-------2---0-----------4h6-----4-------2-------| 
E|--------------------------------4-------------------------------| 

G|----------------------------------------------------------------| 
D|--------2-------------------1---2---------------2-2---------1---| 
A|0-----------0---2---2---4---------------2-----------2---4-------| 
E|----------------------------------------------------------------| 

2:03 

G|----------------------------------------------------------------| 
D|2-------2-------------------------------------------------------| 
A|----------------0-------2---0-----------4h6-----4-------2-------| 
E|--------------------------------4-------------------------------| 

G|----------------------------------------------------------------| 
D|--------2-----------------------2-------------2---2---------1---| 
A|0---------------0-------0---------------2-----------2-2-4-------| 
E|----------------------------------------------------------------| 

G|----------------------------------------------------------------| 
D|2-------2-------------------------------------------------------| 
A|----------------0-------2---0-----------4h6-----4-------2-------| 
E|--------------------------------4-------------------------------| 

G|------------------------------------------------4---------------| 
D|------------2---2h4-----4-2-------------4-----------------------| 
A|0-------0-------------------4---2-------------------------------| 
E|----------------------------------------------------------------| 

2:23 

G|----------------------------------------------------------------| 
D|----------------------------------------------------------------| 
A|----------------------------------------------------------------| 
E|----------------------------------------------------------------| 

G|----------------------------------------------------------------| 
D|--------------------------------2-------------2-----2---4---6---| 
A|----------------------------------------2---------2-------------| 
E|----------------------------------------------------------------| 

G|----------------------------------------------------------------| 
D|7---------------7---------------7---------------7-------6-------| 
A|--------7---------------7---7-----------7-----------------------| 
E|----------------------------------------------------------------| 

G|----------------------------------------------------------------| 
D|4---------------4-------4-2-----------/-4---4-----4---------1---| 
A|--------4-------------------4---2-------------------2---4-------| 
E|----------------------------------------------------------------| 

2:44 

G|----------------------------------------------------------------| 
D|2-------2-------------------------------------------------------| 
A|----------------0-------2---0-----------4h6-----4-------2-------| 
E|--------------------------------4-------------------------------| 

G|--------------------------------| 
D|--------2-------------------1---| 
A|0-----------0---2---2---4-------| 
E|--------------------------------| 

G|----------------------------------------------------------------| 
D|2---------------2-----2-----2-----------2-------------------1---| 
A|--------2---------------2-------0-----------0---2---2---4-------| 
E|----------------------------------------------------------------| 

G|----------------------------------------------------------------| 
D|2---------------------------------------------------------------| 
A|----------------------------------------------------------------| 
E|----------------------------------------------------------------| 

3:02 Until fadeout. 

G|----------------------------------------------------------------| 
D|2---------------2---------------2---------------2-----2---------| 
A|--------2---------------2---2-----------2---------------2---2---| 
E|----------------------------------------------------------------| 
		  

See also:

bass Bob Lind - Dale Anne bass Rodney Atkins - Caught Up In The Country bass Brooks And Dunn - Missing You Bassline bass Garth Brooks - The Dance bass Glen Campbell - I'll Be Lucky Someday bass Brooks And Dunn - Neon Moon2
e-chords

Other versions:

bass Jerry Reed - One Sweet Reason
auto scroll beats size up size down change color hide chords drawings
tab show chords e-chords YouTube Clip e-chords hide all tabs e-chords go to top tab

share