Jax Jones

You Dont Know Me

Jax Jones

bass

by  AMAN_CLAUDINO

save to print version add songbook text version e-mail correct tuner
chordsukulelecavacokeyboardtabbassdrumsharmonicaflute Guitar Pro
close

there isn't a video lesson for this song

chords

You Dont Know Me

	  		Intro 
No Bass 

Verse 
G|-------------------------------------| 
D|--------4--0--------2--2--5-4-4-7-7--| 
A|--2--2-------------------------------| 
E|-------------------------------------| 

Pre-Chorus 
No Bass 

Chorus 
G|-------------------------------------| 
D|--------4--0--------2--2--5-4-4-7-7--| 
A|--2--2-------------------------------| 
E|-------------------------------------| 
		  

See also:

bass Deep Purple - Space Truckin' bass Deep Purple - Burn Ver.(2) bass Deep Purple - Soldier Of Fortune bass Deep Purple - Burn (ver. 2) bass Deep Purple - Highway Star bass Deep Purple - Strange kind of woman
e-chords

Other versions:

bass Jax Jones - You Dont Know Me
auto scroll beats size up size down change color hide chords drawings
tab show chords e-chords YouTube Clip e-chords hide all tabs e-chords go to top tab

share