Jane's Ground

Me & My Friends

Jane's Ground

bass

by  RAFAEL_BALZARY

save to print version add songbook text version e-mail correct tuner
chordsukulelecavacokeyboardtabbassdrumsharmonicaflute Guitar Pro
close

there isn't a video lesson for this song

chords

Me & My Friends

	  		Intro 
 
G|--------9-|--------11-|        
D|---5/10---|---5/10----|  
A|-0--------|-0---------|  x2 
E|----------|-----------| 
 
G|-11-10----| 
D|-------9--| 
A|----------|  x8 
E|----------| 
 
Chorus ?Me and my?? then  ?friends? 
 
G|----------|            |-------------| 
D|-7-5------|            |-------3-----| 
A|-----7----|  x4        |-3-555---555-|  x2 
E|----------|            |-------------| 
 
Build up to Verse 
 
G|-------------------| 
D|-------------------| 
A|-55555555-66666666-| 
E|-------------------| 
 
Verse 
 
G|-----------|-----------| 
D|-----------|-----------| 
A|------5555-|-----55555-| 
E|-5555------|-555-------| 
 

		  

auto scroll beats size up size down change color hide chords drawings
tab show chords e-chords YouTube Clip e-chords hide all tabs e-chords go to top tab

share