Jane's Ground

Get up and jump

Jane's Ground

bass

by  LUKAZ_NAVARRO

save to print version add songbook text version e-mail correct tuner
chordsukulelecavacokeyboardtabbassdrumsharmonicaflute Guitar Pro
close

there isn't a video lesson for this song

chords

Get up and jump

	  		Intro: 
 
G|----------------|------6666------|----------------|------66666666--| 
D|2---------------|----------------|2---------------|----------------| 
A|--------4-----5-|----------------|--------4-----55|----------------| 
E|---03-4---------|----------------|---03-4---------|----------------| 
   
Verse (Part 1): 
 
G|-------3---------3-3h5-|-------3---------3-3h5-| 
D|--5---------5----------|--5---------5----------| 
A|-----------------------|-----------------------| 
E|3---xx---xx---xx------0|3---xx---xx---xx------0| 
  S P SS P SS P SS P P  S S P SS P SS P SS P P  S 
Verse (Part 2): 
 
G|-----------------------|-----------------------| 
D|--5----3----5----3-3h5-|--5----3----5----3-3h5-|  
A|-----------------------|-----------------------| 
E|3---xx---xx---xx------0|3---xx---xx---xx------0| 
  S P SS P SS P SS P P  S S P SS P SS P SS P P  S 
 
Verse Variations:  
 
G|-----------------------|	 
D|--5----3----2----3-3h5-|	 
A|-----------------------|	 
E|3---xx---xx---xx------0|     
  S P SS P SS P SS P P  S 
 
G|-------------------3h5-| 
D|--5----3----5----3-----| 
A|-----------------------| 
E|3---xx---xx---xx------0| 
  S P SS P SS P SS P P  S 
 
(Listen to the song for where to use the variations) 
 
Chorus: 
 
G|----------------|----------------|----------------|---------7-7-5--| 
D|----5555--------|----5555--------|----5555--------|----5555--------| 
A|----------------|----------------|----------------|----------------| 
E|5---------------|5---------------|5---------------|5---------------| 
                                                              P P P       
 
G|----------------|----------------|----------------|----------------| 
D|----5555--------|----5555--------|----5555--------|----5555--------| 
A|----------------|----------------|----------------|----------------| 
E|5---------------|5---------------|5---------------|5---------------| 
 
Chorus Variation 
 
G|----------------|----------------|----------------|----------------| 
D|----5555--------|----5555--------|----5555--------|----5555--------| 
A|----------------|----------------|----------------|----------------| 
E|5--------02-3-4-|5--------02-3-4-|5--------02-3-4-|5--------02-3-4-| 
 
Outro  
 
G|----------------|------6666------|----------------|------66666666--| 
D|2---------------|----------------|2---------------|----------------| 
A|--------4-----5-|----------------|--------4-----55|----------------| 
E|---03-4---------|----------------|---03-4---------|----------------| 
 
Order: 
 
Intro x2 
Verse (Part 1) x2 
Verse (Part 2) x3 
Verse (Part 1) x1 
Verse (Part 2) x5 
Verse (Part 1) x1 
Verse (Part 2) x1 1/2 
Chorus x1 
Verse (Part 1) x2 
Verse (Part 2) x5 
Verse (Part 1) x1 
Verse (Part 2) x2 
Chorus x1 
Chorus Variation x2 
Verse (Part 1) x2 
Verse (Part 2) x2 
Outro x1  
 
Key: 
 
x - muted note 
h - hammer on 
 
 

		  

auto scroll beats size up size down change color hide chords drawings
tab show chords e-chords YouTube Clip e-chords hide all tabs e-chords go to top tab

share