Jane's Ground

Fortune Faded

Jane's Ground

bass

by  RAFAEL_BALZARY

save to print version add songbook text version e-mail correct tuner
chordsukulelecavacokeyboardtabbassdrumsharmonicaflute Guitar Pro
close

there isn't a video lesson for this song

chords

Fortune Faded

	  		Intro: 
 
G-------------------------------------------------------------------------------------------------| 
D-------------------------------------------------------------------------------------------------| 
A-------------------------------------------------9--9--9--9--9--9--9--9--9--9--9--9--9--9--9--9--| 
E-2--2--2--2--2--2--2--2--2--2--2--2--2--2--2--2--------------------------------------------------| 
 
G-------------------------------------------------11-11-11-11-11-11-11-11-11-11-11-11-11-11-11-11-| 
D-11-11-11-11-11-11-11-11-11-11-11-11-11-11-11-11-------------------------------------------------| 
A-------------------------------------------------------------------------------------------------| 
E-------------------------------------------------------------------------------------------------| 
 
Estrofe  
 
G------------------------------------------------------------------------------------ 
D------------------------------------------------------------------------------------ 
A------------------------------------------------------------------------------------ 
E--7---7---x--x--x--x--7---7---x--x--x--x---7---7---x--x--x--x---7---7---x--x--x--x-- 
 
G-------------------------------------------------------------| 
D-------------------------------------------------------------| 
A--5---x-5----x-5---x-5---x-5---------------------------------| 
E---------------------------------5-5-5-5----5-5-5-5----3--3--| 
 
Refrão 
 
G------------------7------------------------------------------------------- 
D----7--7-7---7-------7----5--5-5--5---5-5--5--7---9---9-9--9---9-9--9----- 
A-----------------------------------------------------------------------9-- 
E-------------------------------------------------------------------------- 
 
G-------------------------------------------7----------------------------------- 
D-----------------------------7---7-7--7--------7-----5----5-5---5---5-5--5--7-- 
A------7---5------7---5---5----------------------------------------------------- 
E------------------------------------------------------------------------------- 
 
G-------------------------------------------------------------------------------| 
D----9-----9---9------9-----------9----9----9--------9----9----9----------------| 
A-------------------------------------------------------------------------------| 
E-------------------------------------------------------------------------------| 
 
 
 

		  

auto scroll beats size up size down change color hide chords drawings
tab show chords e-chords YouTube Clip e-chords hide all tabs e-chords go to top tab

share