Jane's Addiction

Slow Divers Bass Tab

Jane's Addiction

Difficulty: nolevelnolevel

by brunblazkowski

tuner correct add songbook print version text version save to e-mail
chordsukulelecavacokeyboardtabbassdrumsharmonicsflute Guitar Pro
close

there isn't a video lesson for this song

chords

Slow Divers

  		
Intro 

G|-------------------------|-------------------------| 
D|-------------------------|-------------------------| 
A|-0-0--0------------------|-0-0--0------------------|  (x2) 
D|---------0-2---------0-2-|---------0-2-------------| 

G|-------------------------|-------------------------| 
D|-------------------------|-------------------------| 
A|-0-0--0------------------|-0-0--0------------------| 
D|---------0-2---------0-2-|---------5-2---------0-2-| 

G|-------------------------| 
D|-------------------------| 
A|-0-0--0------------------| 
D|---------0-2---------0-2-| 

verse 1  
                    
G|-------------------------|-------------------------| 
D|-------------------------|-------------------------| 
A|-0-0--0------------------|-0--0--0-----------------|  (x6) 
D|---------0-2---------0-2-|----------0-2------------| 

G|-------------------------|-------------------------| 
D|----------9--------------|----------10-------------| 
A|-0---12------------------|-0---12------------------| 
D|-------------------------|-------------------------| 

G|-------------------------|-------------------------| 
D|----------9--------------|----------10-----10p9----| 
A|-0---12------------------|-0---12------------------| 
D|-------------------------|-------------------------| 

G|-------------------------|-------------------------| 
D|----------9--------------|----------10-----10p9----| 
A|-0---12------------------|-0---12------------------| 
D|-------------------------|-------------------------| 

G|-------------------------|---------------------12--| 
D|----------9--------------|----------10-------------| 
A|-0---12------------------|-0---12------------------| 
D|-------------------------|-------------------------| 

G|-------------------------|-------------------------| 
D|----------9--------------|----------10---10h12p10--| 
A|-0---12------------------|-0---12------------------| 
D|-------------------------|-------------------------| 

G|-------------------------|-----------------12------| 
D|----------9--------------|----------10-------------| 
A|-0---12------------------|-0---12------------------| 
D|-------------------------|-------------------------| 

Bridge 

G|-------------------------|-------------------------| 
D|-------------------------|-------------------------| 
A|-0-0--0------------------|-0-0--0------------------|  (x3) 
D|---------0-2---------0-2-|---------0-2-------------| 

G|-------------------------|-------------------------| 
D|-------------------------|---------2---------------| 
A|-0-0--0------------------|-0-0--0------------------|  
D|---------0-2---------0-2-|-----------2-------------| 

verse 2 

G|-------------------------|-------------------------| 
D|----------9--------------|----------10-------------| 
A|-0---12------------------|-0---12------------------| 
D|-------------------------|-------------------------| 

G|-------------------------|-----------------12------| 
D|----------9--------------|----------10-------------| 
A|-0---12------------------|-0---12------------------| 
D|-------------------------|-------------------------| 

G|-------------------------|-------------------------| 
D|----------9--------------|----------10-------------| 
A|-0---12------------------|-0---12------------------| 
D|-------------------------|-------------------------| 

G|-------------------------|-------------------------| 
D|----------9--------------|----------10---10-9-10---| 
A|-0---12------------------|-0---12------------------| 
D|-------------------------|-------------------------| 

G|-------------------------|-------------------------| 
D|-------------------------|-------------------------| 
A|-0-0--0------------------|-0-0--0------------------|  (x3) 
D|---------0-2---------0-2-|---------0-2-------------| 

Bridge 2 

G|-------------------------|-------------------------| 
D|-------------------------|-------------------------| 
A|-0-0--0------------------|-0-0--0------------------|  (x4) 
D|---------0-2---------0-2-|---------0-2-------------| 

verse 3 

G|-------------------------|-------------------------| 
D|----------9--------------|----------10-------------|   
A|-0---12------------------|-0---12------------------|  (x3) 
D|-------------------------|-------------------------| 

G|-------------------------|---------------------12--| 
D|----------9--------------|----------10-------------| 
A|-0---12------------------|-0---12------------------| 
D|-------------------------|-------------------------| 

G|-------------------------|-------------------------| 
D|-------------------------|-------------------------| 
A|-0-0--0------------------|-0-0--0------------------|  (x3) 
D|---------0-2---------0-2-|---------0-2-------------| 

Outro 

G|-------------------------|-------------------------| 
D|-------------------------|-------------------------| 
A|-0-0--0------------------|-0-0--0------------------|  (x2) 
D|---------0-2---------0-2-|---------0-2-------------| 

G|-------------------------|-------------------------| 
D|-------------------------|-------------------------| 
A|-0-0--0------------------|-0-0--0------------------|   
D|---------0-2---------0-2-|---------0-2-----------0-| 

G|-------------------------|-------------------------| 
D|-------------------------|-------------------------| 
A|-0-0--0------------------|-0-----------------------|   
D|---------0-2---------2-5-|-------------------------| 

************************************ 

| h   Hammer-on 
| p   Pull-off 

************************************ 
	  

auto scroll beats size up size down change color hide chords drawings
tab show chords e-chords YouTube Clip e-chords hide all tabs e-chords go to top tab

share with facebook

Search Paypal