Jamiroquai

home > Jamiroquai

Where Do We Go From Here Bass Tab

Jamiroquai

Difficulty: nolevelnolevel

by VsWorld

tuner correct add songbook print version text version save to e-mail
chordsukulelecavacokeyboardtabbassdrumsharmonicsflute Guitar Pro
chords

Where Do We Go From Here

  		
Intro 
|-----------------|-------7---------| 
|---2---4---5---4-|---2-------------|  
|-----------------|-----5---4-------|  
|-0---2---3---2---|-0---------5-----| 

 Verse  
|-----------------|-----------------| 
|-----------------|2-------2--------|   
|--------*--------|--2-5-----5-2----|  
|-3-0-2--05-3-5---|---------------54|  

|---|-----------------|---|-----------------|---|-----------------| 
|---|2-------2--------|---|2-------2--------|---|2-------2-55-2---| 
|-V-|--2-5-----5--2---|-V-|--2-5-----55-2---|-V-|--2-5----------5-| 
|---|-----------------|---|---------------5-|---|-----------------| 
                      
|---|-----------------|---|-----------------|---|-----------------| 
|---|2-------2--------|---|2-------2--------|---|2-------2--------| 
|-V-|--5---2---5--2---|-V-|--5---2---5--2---|-V-|--5---2---5--2---| 
|---|-----------------|---|---------------5-|---|-----------------| 

 Chorus 
|---------------------------|---------------------------|---| 
|---------------------------|4--5-4--------5h7--5-------|---| 
|------5------------5-5-7-7-|---------------------7-5---|-C-| 
|-5---------5-6-7-7---------|-------------------------7-|---| 

--------------------------|---|    
4--5-4--------------------|---|  
--------------5h7--5------|-C-|  
---------------------7-3-4|---|      

 Verse2 (play 12x, except:  6th time this            12th time this) 
|---|-----------------|    |---|-----------------|  |---|-----------------| 
|---|2-------2--------|    |---|2-------2--------|  |---|2-------2----4p2-| 
|-V-|--5---2---5--2---|    |-V-|--5---2---5---5--|  |-V-|--5---2---5------| 
|---|-----------------|    |---|-----------------|  |---|-----------------| 

 Break 
|-----------------|-----------------|-----------------|-----------------| 
|-2-2-0-----------|-2-2-0-----------|-2-2-0-----------|-2-2-0-----------| 
|-----------------|-----------4p0--2|----------------2|-----------4----2| 
|-----------------|-----------------|-----------------|-----------------| 

|-----------------|-----------11~12-|-----------7-----|-----------------| 
|-2-2-0-----------|-2-2-0-----------|-2-2-0-----------|-2-2-0--------4--| 
|----------------2|-----------------|----------------2|-----------4-----| 
|-----------------|-----------------|-----------------|-----------------| 

 Chorus2 
|---|---------------------------|---|----------4p0--------------|---|---------------------------| 
|---|4--5-4--------5h7--5-------|---|4--5-4---------4-----------|---|4--5-4---------------------| 
|-C-|---------------------7-5---|-C-|------------------7--5-----|-C-|---------------------------| 
|---|-------------------------7-|---|-----------------------7-3-|---|---------------0---2---3---| 

|---|---------------------------|---|---------------------------|---|---------------------------| 
|---|4--5-4---------------------|---|4--5-4--------5h7--5-------|---|4--5-4---------------------| 
|-C-|------------5-5h7--5-------|-C-|---------------------7-5---|-C-|---------------7---5-------| 
|---|---------------------7-3-4-|---|-------------------------7-|---|---------------------7-3-4-| 

|---|---------------------------|---|----------7h9--------------|---|---------------------------|---| 
|---|4--5-4-------------5-------|---|4--5-4-------7h9-----5-5h7-|---|4--5-4---------------------|---| 
|-C-|--------------5h7----7-5---|-C-|----------------5h77-------|-C-|------------5-5h7--5-------|-C-| 
|---|-------------------------7-|---|---------------------------|---|---------------------7-0-3-|---| 

 (Break2) 
|---------------------------|----12---------------------| 
|---10----12----12--12-12h13|----------13---(12-12)-----|  Last two or three   
|---------------------------|-10-------------10~--------|  notes vary a bit. 
|-8----10----10-------------|-------11----10------------| 

 Chorus3 
|---|---------------------------|---|---------------------------|---|---------------------------| 
|---|4--5-4--------5h7--5-------|---|4--5-4---------5--4--------|---|4--5-4--------5h7--5-------| 
|-C-|---------------------7-5---|-C-|---------------------5-7---|-C-|---------------------7-5---| 
|---|-------------------------7-|---|-------------------------7-|---|-------------------------7-| 

|---|--------------7h9--7-------|---|----------7h9--------------|---| 
|---|4--5-4---------------7-5---|---|4--5-4-------7h9-----5-----|---| 
|-C-|-------------------------7-|-C-|----------------5h77---5---|-C-| 
|---|---------------------------|---|-------------------------7-|---| 

 Intro (play 4x) 

 Verse  
|---|-----------------|---|-----------------|---|-----------------|---|-----------------|   
|---|2-------2--------|---|2-------2--------|---|2-------2--------|---|2-------2--------|   
|-V-|--2-5--0--5--2---|-V-|--2-5-----5--2---|-V-|--2-5------0--2--|-V-|--2-5-----5--2---|   
|---|---------------5-|---|-----------------|---|-----------------|---|-----------------|    
                                             
|---|-----------------|---|-----------------|---|-----------------|    
|---|2-------2--------|---|2-------2--4-5-4-|---|2-------2--------|    
|-V-|--2-5-----5--2-52|-V-|--2-5------------|-V-|--2-5-----5--2---|    
|---|-----------------|---|-----------------|---|-----------------| 
	  

Search Paypal
auto scroll beats size up size down change color hide chords drawings
tab show chords e-chords YouTube Clip e-chords hide all tabs e-chords go to top tab