Jamiroquai

home > Jamiroquai

High Times Bass Tab

Jamiroquai

Difficulty: nolevelnolevel

by VsWorld

tuner correct add songbook print version text version save to e-mail
chordsukulelecavacokeyboardtabbassdrumsharmonicsflute Guitar Pro
chords

High Times

Year: 2006 - Album: High Times: Singles 1992-2006

  		
    Intro, verses, Solo, etc.                                                                             
G-|-------------------------------------------------| 
D-|-------------------------------------------------| Main Riff 
A-|-7---7--7-----------------------2----------------| 
E-|-------------6---6--6----5---5-------3---0--0----| 
                                                                                
                              
G-|-------------------------|-----------------------|-------------------------| 
D-|-------------------------|-----------------------|-------------------------| 
A-|-7---7-----5-----7-------|-----------2---3-4-----|-8----8-----6-----8------| 
E-|-------------------------|-5---5-----------------|-------------------------| 
                                                                                
                                
G-|-------------------------|-----------------------|-------------------------| 
D-|-------------------7-9---|-----------------------|-------------------------| 
A-|-7---7-------5-7---------|-7---7-----5-----7-----|------------2---3-4------| 
E-|-------------------------|-----------------------|-5----5------------------| 
                                                                                
                                                      
G-|-------------------------|-----------------------| 
D-|-------------------------|-------------9-7-------| 
A-|-8---8-----6-----8-------|-7---7------------5-7--| 
E-|-------------------------|-----------------------| 

                             
G-|---------3----------------||---------------------7h9||--------3-------3----- 
D-|-----3h5---5\---8\---8\---||----------------5-7-----||----3h5---5p3h5---5p3h5 
A-|-3h5----------------------||-7---7-----5-7----------||3h5-------------------- 
E-|--------------------------||------------------------||----------------------- 
                                                                                
                                                                               
   
	  

Search Paypal
auto scroll beats size up size down change color hide chords drawings
tab show chords e-chords YouTube Clip e-chords hide all tabs e-chords go to top tab