Jake Chudnow

Moon Men

Jake Chudnow

bass

by  TARIKIKE

save to print version add songbook text version e-mail correct tuner
chordsukulelecavacokeyboardtabbassdrumsharmonicaflute Guitar Pro
close

there isn't a video lesson for this song

chords

Moon Men

	  		Main Riff 
G||---------------------------------|| 
D||---------7--5----------7--X--8---|| 
A||-------5-------5-----5-----------|| 
D||---0h7-----------0h7-------------|| 

G||---------------------------------|| 
D||---------7--5----------7--5------|| 
A||-------5-------5-----5-------5---|| 
D||---0h7-----------0h7-------------|| 


************************************ 

| h  Hammer-on 
| X  dead note 

************************************ 
		  

auto scroll beats size up size down change color hide chords drawings
tab show chords e-chords YouTube Clip e-chords hide all tabs e-chords go to top tab

share