Jaco Pastorius

Havona

Jaco Pastorius

bass Intermediate intermediate

by  DIEGOBASS

save to print version add songbook text version e-mail correct tuner
chordsukulelecavacokeyboardtabbassdrumsharmonicaflute Guitar Pro
close

there isn't a video lesson for this song

chords

Havona

	  		G|---------------------------|----8-8---6-x--------------------| 
D|-------9---9---------------|--------6-----x-9-9--------------| 
A|----7--------------7-9---7-|-(7)----------------x-----7-9-0--| 
E|-------------7-7h9-----7---|----------------------7h9--------| 
 
G|--------------------------|----4-4-2---2-----------|-------------------| 
D|----7-----5-5-------------|--------------5-----2-x-|---4-4-------------| 
A|--5---3-------------3-5---|-3--------------3-------|-2-----x-----------| 
E|----------------3h5-----3-|------------------------|---------2------2h-| 
 
G|-----------------------------|----------------------------| 
D|------------4-4--------------|----------------------------| 
A|---2-4---2------x-----2-4----|------------5-------5---5---| 
E|-4-----2----------2h4-----2--|--3-3-3---3---5--5--------3-| 
 
G|-----------------------|----------------|-------------------| 
D|--------5-5------------|--2--------2--2-|-------2-----------| 
A|--------------0h2-2-2--|----------------|----------------0--| 
E|--(3)------------------|-----0--0-------|--0--0----0-3-3----| 
 
G|-------------------------4-x--|----2----------------------------| 
D|-----5---5--------------------|--x---5---5-5--------------------| 
A|--3--------x-----3-5---3------|--------3-----x---------x-0-0-1--| 
E|-------------3h5-----3--------|----------------2h3-x-4----------| 
 
G|-----------------------------|-----3-x---1------------------| 
D|-----1---x-4-4---------------|---------x---4---4--4---------| 
A|--2------------------2-4---2-|-(2)-----------2--------------| 
E|-----------------2h4-----2---|-----------------------1h2-2--|     
 
G|------------------------|-----------------7------| 
D|------------------------|---------7---7h9---9----| 
A|-----------------5---6--|-7-x-8h9----------------| 
E|--3----4-5-x-6h7--------|------------------------| 
 
G|----------------|-----------|---------4-----2h4-4-x--| 
D|----4---------4-|-(4)----4--|------------------------| 
A|-5--------------|-----------|--0--2-------2----------| 
E|---------2------|----2------|------------------------| 
 
G|-----------4---2-4---------|----------4--------| 
D|-4-4-x-------4-----0-2-4---|-------------------| 
A|-------2-------------------|--0--2-------------| 
E|---------------------------|-----------------0-|   
 
G|-------------------14-19-14--------------------|-----------| 
D|--------9----14-16----------15-14--------------|-----------| 
A|----7-9---15----------------------15-14--------|-----7-----| 
E|--7-------------------------------------13-12--|--0-----0--| 
 
G|---------------|------------------------|-4-4---2--------- 
D|----------9\---|----5----5--------------|-----x---5---5-x- 
A|----------7\---|-3--------------3-5---3-|-----------3----- 
E|-(0)-0---------|------------3h5-----3---|-----------------        
 
G----------------|--------------------------|---3--3--1---x--------------| 
D----------------|-----1---X-3-4------------|---------------4-4----------| 
A---------0---1--|--2-----------------2-4---|-2--------------------------| 
E---2h3-x---3----|----------------2h4-----2-|---------------------2-3-4--| 
 
G|-----------------------|----------------------|---------7-7------ 
D|-----------------------|------5---------------|-----5-5---------- 
A|--0--0-2--2-3--3-5--5--|------------5-5-------|-5h7-------------- 
E|-----------------------|--3-------------3-3---|-------------5-5-- 
 
G------------------|---------6-6---------------------| 
D------------------|-----4-4-------------------------| 
A----5-7---7---5---|-4h6---------------4-6---6---4---| 
E--7-----5---5---5-|-------------4-4-6-----4---4---4-| 
 
G|-------------------------4-x-|----2---------------------------| 
D|-----5----5------------------|--2---5---5-5-------------------| 
A|--3--------------3-5---3-----|--------3-------------0---2--3--| 
E|-------------3h5-----3-------|----------------2h3-3---3-------| 
 
G|--------------------------|--3-3-x-1---1------------------|------------| 
D|-----4---4----------------|--------------0-1-----3-4------|------------| 
A|--2--------x-----3-5---3--|-------------------------------|-------4-4--| 
E|-------------3h5-----3----|---------------------------2-x-|--3---------|   
 
G|------------2--|---------4------4-4-4--|------------4----| 
D|---5----4-2----|-----------------------|-----------------| 
A|---------------|--0--2------2-2--------|--2-2-2---2------| 
E|---------------|-----------------------|-----------------| 
 
G|---------4----4-4----|-------|---------4-----4----| 
D|---------------------|-------|--------------------| 
A|--0--2------2-----2--|---2---|--0--2-------2------| 
E|---------------------|-------|------------------0-| 
 
G|-------------------14-19-14--------------------|-------------| 
D|--------9----14-16----------15-14--------------|-------------| 
A|----7-9---15----------------------15-14--------|----7--------| 
E|--7-------------------------------------13-12--|----------0--|   
 
G|-----------|----4//---5~--|-----9\\----7~-------|------4--| 
D|-----------|--------------|---------------------|---------| 
A|---------0-|-2-(2)/---3~--|-7--(7)\----5~-----0-|--2------| 
E|---4-------|--------------|---------------------|---------| 
 
G|----3-x---1------------------|---------------------|--7-------| 
D|--------x---4---4-4----------|----------------5-5--|----------| 
A|--------------2---------0-3--|--0-0-------5h7------|----------| 
E|--------------------2-3------|------3--------------|------0---| 
 
G|---------7-7----------------------|---------6-6----------------------| 
D|-----5-5--------------------------|-----4-4--------------------------| 
A|-5h7---------------5-7---7---5----|-4h6---------------4-6---6---4----| 
E|-------------5-5-7-----5---5---5--|-------------4-4-6-----4---4---4--|  
 
G|-----------------------------|-----4-x----x-----------------------| 
D|----------2-x-4-x-5----------|----------2---x---2-2-3-5----5------| 
A|--3--3--3-----------------2--|--3-------------x--------------0-1--| 
E|---------------------3-5-----|------------------------------------|   
 
G|-------------------------|----------------------|----------------------| 
D|-------x-3-4--6-4--------|----------------------|----------------5-7-x-| 
A|--2---------------6-4----|-----------------4----|---2-/4-5-5h7-7-------| 
E|----------------------7--|--4--\2-2--x-2-2---2--|-3--------------------| 
 
G|-----7---------7-----7---|---------4-----4-4-4-|-(4)-7-------4------| 
D|-7-9-------7h9---7h9-----|---------------------|---------------7----| 
A|-------------------------|--0--2-------2-------|--------------------| 
E|-------------------------|---------------------|--------------------| 
 
G|---------4--------4-4-4--|-4---------------|---------4---|---(4)---| 
D|-------------------------|-----------2-4---|-------------|---------| 
A|--0--2-------2-----------|-----------------|--0--2-------|---(2)---| 
E|-------------------------|-----------------|-------------|---------|         
 
G|-----------11-13------|---------|-----------11-12-12~--|--(12)~---| 
D|----------------------|---------|--------10------------|----------| 
A|--------14-------14~--|--(14)~--|----------------------|----------| 
E|----------------------|---------|----------------------|----------|  Bass Solo 
 
 G|------15h16-15--------15-|---------------|-----19-------| 
D|---------------16--------|-18~-----16-18-|-19-----------| 
A|------------------18-----|---------------|----------19~-| 
E|-------------------------|---------------|--------------| 
 
G|------------------14--|-------0-14-------------------|-------------- 
D|----------/16-/16-----|-16~--------16----15----14----|-13----------- 
A|--(19)----------------|---------------17----16----15-|----14-13----- 
E|----------------------|------------------------------|----------14--   
 
G---------------|--------------------------12--------| 
D-----13--------|-------------12-14----14------------| 
A--------16-----|----12-14-15-----------------14-12~-| 
E--16-----------|------------------------------------|     
 
G|------14----11-------12-------|-13-11-------11-------------------------| 
D|---------------14-12----14-12-|-------13-11----13-11-------11----------| 
A|------------------------------|----------------------14-13----14-13-11-| 
E|------------------------------|----------------------------------------| 
 
G|---------------------------|----16----------------------------| 
D|------------18-15-------15-|-16----18-16--14-16-12---14-------| 
A|--(11)------------16-18----|----------------------------12----| 
E|---------------------------|----------------------------------| 
 
G|-----------------------------------|---------4---2--4-----2--| 
D|---------14-16----14---------------|-------------------4-----| 
A|-(12)----------17----14-17-----12--|--0--2-------------------| 
E|-----------------------------------|-------------------------| 
 
G|----------------|-----|----11-----9-----------9------------------------| 
D|--2--4----------|-----|----------------12--9----12--9-----12-9---------| 
A|--------5-------|-----|--------------------------------12------12-9----| 
E|----------------|-----|--------------------------------------------12--| 
 
G|-------------------------|-----|----8h9-8-8----|------------------ 
D|-------------------------|-----|------------9--|--11-9------------ 
A|--------9----------------|-----|---------------|-------11-9~~----- 
E|--10-12---10--7-7-5------|-----|---------------|------------------ 
                                       
G--11-8------------|--------------7--------------|---------------9-------| 
D-------11-9-------|-------7--------9-10----9----|-(9)---9-10-12---12-10-| 
A------------11-9--|-0-------9-10--------7-------|-----------------------| 
E------------------|---7-8-----------------------|-----------------------| 
 
G|--------13-------------------------------|-------------13-------------- 
D|--13-------13---11--13----13-------------|--------15------16-------16-- 
A|-----------------------14----13------11--|-(11)--------------15-14----- 
E|-----------------------------------------|----------------------------- 
 
G----------------|-------------------------------------|---------------| 
D--13------------|-----14--------16-14-----------------|---------2-----| 
A------14-13-----|--------17-14--------17-14----17-14--|-(14)----------| 
E------------16--|--15-----------------------17--------|-----------0---|  
 
G|---------------------9-11-13-14-11--------|--------11----------------- 
D|--------------7-9-11---------------14-12--|-11--------13-11-------11-- 
A|--------5-7-9-----------------------------|-----------------14-11----- 
E|--3-5-7-----------------------------------|--------------------------- 
 
G-------------------------|----11-12-------12-----------------------| 
D-------------------11-13-|-14----------------14-------14-12--------| 
A--14-11-------11-14------|----------------------15-14-------14-12--| 
E-------11h12-------------|-----------------------------------------| 
 
G|--------0-9-7--------------|-----------6-4--------------------| 
D|--------------9-7----------|-------6-4-------8-6--------------| 
A|-(12)-------------10-----0-|---6-4---------6-----9-6----9-6-8-| 
E|---------------------8-7---|-4------------------------9-------| ~ 
 
G|--------6-------------------------8-|-9----0--11----0-14---0-16-----0--| 
D|----6-8---------------------9-11----|----7--------9------11------14----| 
A|--9----------11-10-9-11-12----------|----------------------------------| 
E|----------11------------------------|----------------------------------| 
 
G|-19----0-16----0-18----0-14----0--|------------|------------|---------| 
D|----17------14------16-----12-----|------------|--0--2------|---------| 
A|----------------------------------|--0--2------|------------|--0--2---| 
E|----------------------------------|------------|------------|---------| 
 
G|-------------------14-19-14-------------------| 
D|--------9----14-16----------15-14-------------| 
A|----7-9---15----------------------15-14-------| 
E|--7-------------------------------------13-12-| 
 
 

		  

See also:

bass Esperanza Spalding - I Know You Know bass Jaco Pastorius - Blackbird bass Jaco Pastorius - Cha cha bass Jaco Pastorius - Portrait of tracy bass Herbie Hancock - Cantaloupe Island bass Jaco Pastorius - Opus pocus
e-chords

Other versions:

bass Jaco Pastorius - Havona
auto scroll beats size up size down change color hide chords drawings
tab show chords e-chords YouTube Clip e-chords hide all tabs e-chords go to top tab

share