save to print version add songbook text version e-mail correct tuner
chordsukulelecavacokeyboardtabbassdrumsharmonicaflute Guitar Pro
close

there isn't a video lesson for this song

chords

So Long

	  		
Intro 
A|--5---5---5---5---0---3---2---2---3---3---5---3---2---0---2---2-| 
C|----------------------------------------------------------------| 
E|----------------------------------------------------------------| 
G|0---0---0---0---0---0---0---0---0---0---0---0---0---0---0---0---| 

A|--2---2---2---2---0---0---0---0---0---2---0---0-----------------| 
E|0---0---0---0-------------------------------------3---3---3---3-| 
C|----------------2---2---2---2---1---1---1---1---0---0---0---0---| 
G|----------------------------------------------------------------| 

Verse 
A|--5---5---5---5---0---3---2---2---3---3---5---3---2---0---2---2-| 
C|----------------------------------------------------------------| 
E|----------------------------------------------------------------| 
G|0---0---0---0---0---0---0---0---0---0---0---0---0---0---0---0---| 
   You've made me                into someone 

A|--2---2---2---2---0---0---0---0---0---2---0---0-----------------| 
E|0---0---0---0-------------------------------------3---3---3---3-| 
C|----------------2---2---2---2---1---1---1---1---0---0---0---0---| 
G|----------------------------------------------------------------| 
  Who should not hold               a loaded gun 

A|--5---5---5---5---0---3---2---2---3---3---5---3---2---0---2---2-| 
C|----------------------------------------------------------------| 
E|----------------------------------------------------------------| 
G|0---0---0---0---0---0---0---0---0---0---0---0---0---0---0---0---| 
  And now you sit               upon my chest 

A|--2---2---2---2---0---0---0---0---0---2---0---0-----------------| 
E|0---0---0---0-------------------------------------3---3---3---3-| 
C|----------------2---2---2---2---1---1---1---1---0---0---0---0---| 
G|----------------------------------------------------------------| 
   Knock out my wind            knock out my best 

Chorus 
A|--2---2---2---2---0---0---0---0---2---2---2---2---2---2---2---2-| 
E|--------------------------------2---2---2---2---3---3---3---0---| 
C|0---0---0---0---2---2---2---2-----------------------------------| 
G|----------------------------------------------------------------| 
  And so long                      to no disasters 

A|--2---2---2---2---0---0---0---0---5---5---5---5---0---3---2---2-| 
E|----------------------------------------------------------------| 
C|0---0---0---0---2---2---2---2-----------------------------------| 
G|--------------------------------0---0---0---0---0---0---0---0---| 
                 and mornings too 

A|--2---2---2---2---0---0---0---0---2---2---2---2---2---2---2---2-| 
E|--------------------------------2---2---2---2---3---3---3---0---| 
C|0---0---0---0---2---2---2---2-----------------------------------| 
G|----------------------------------------------------------------| 
  And so long                    to ever afters 

A|--2---2---2---2---2---2---2---2---0---0---0---0---0---0---0---0-| 
E|----------------------------------------------------------------| 
C|0---0---0---0---0---0---0---0---2---2---2---2---2---2---2---2---| 
G|----------------------------------------------------------------| 
                   so long                        to you 

A|--5---5---5---5---0---3---2---2---3---3---5---3---2---0---2---2-| 
C|----------------------------------------------------------------| 
E|----------------------------------------------------------------| 
G|0---0---0---0---0---0---0---0---0---0---0---0---0---0---0---0---| 

A|--2---2---2---2---0---0---0---0---0---2---0---0-----------------| 
E|0---0---0---0-------------------------------------3---3---3---3-| 
C|----------------2---2---2---2---1---1---1---1---0---0---0---0---| 
G|----------------------------------------------------------------| 

Verse 
A|--5---5---5---5---0---3---2---2---3---3---5---3---2---0---2---2-| 
C|----------------------------------------------------------------| 
E|----------------------------------------------------------------| 
G|0---0---0---0---0---0---0---0---0---0---0---0---0---0---0---0---| 
   I am soft                   for only you 

A|--2---2---2---2---0---0---0---0---0---2---0---0-----------------| 
E|0---0---0---0-------------------------------------3---3---3---3-| 
C|----------------2---2---2---2---1---1---1---1---0---0---0---0---| 
G|----------------------------------------------------------------| 
    Impale me with                   your tongue, it's true 

A|--5---5---5---5---0---3---2---2---3---3---5---3---2---0---2---2-| 
C|----------------------------------------------------------------| 
E|----------------------------------------------------------------| 
G|0---0---0---0---0---0---0---0---0---0---0---0---0---0---0---0---| 
  And slices of                me piled sky high 

A|--2---2---2---2---0---0---0---0---0---2---0---0-----------------| 
E|0---0---0---0-------------------------------------3---3---3---3-| 
C|----------------2---2---2---2---1---1---1---1---0---0---0---0---| 
G|----------------------------------------------------------------| 
   The same old me              to the naked eye 

A|--0---0---0---0-------------------0---0---0---0---5---5---5---2-| 
E|------------------3---3---3---3-----------------------------0---| 
C|1---1---1---1---0---0---0---0---1---1---1---1-------------------| 
G|------------------------------------------------0---0---0-------| 
   But I can't find                  myself tonight 

Chorus 
A|--2---2---2---2---0---0---0---0---2---2---2---2---2---2---2---2-| 
E|--------------------------------2---2---2---2---3---3---3---0---| 
C|0---0---0---0---2---2---2---2-----------------------------------| 
G|----------------------------------------------------------------| 
  And so long                      to no disasters 

A|--2---2---2---2---0---0---0---0---5---5---5---5---0---3---2---2-| 
E|----------------------------------------------------------------| 
C|0---0---0---0---2---2---2---2-----------------------------------| 
G|--------------------------------0---0---0---0---0---0---0---0---| 
                 and mornings too 

A|--2---2---2---2---0---0---0---0---2---2---2---2---2---2---2---2-| 
E|--------------------------------2---2---2---2---3---3---3---0---| 
C|0---0---0---0---2---2---2---2-----------------------------------| 
G|----------------------------------------------------------------| 
  And so long                    to ever afters 

A|--2---2---2---2---2---2---2---2---0---0---0---0---0---0---0---0-| 
E|----------------------------------------------------------------| 
C|0---0---0---0---0---0---0---0---2---2---2---2---2---2---2---2---| 
G|----------------------------------------------------------------| 
                   so long                        to you 

Outro 
A|--5---5---5---5---0---3---2---2---3---3---5---3---2---0---2---2-| 
C|----------------------------------------------------------------| 
E|----------------------------------------------------------------| 
G|0---0---0---0---0---0---0---0---0---0---0---0---0---0---0---0---| 

A|--2---2---2---2---0---0---0---0---0---2---0---0-----------------| 
E|0---0---0---0-------------------------------------3---3---3---3-| 
C|----------------2---2---2---2---1---1---1---1---0---0---0---0---| 
G|----------------------------------------------------------------| 
		  

auto scroll beats size up size down change color hide chords drawings
tab show chords e-chords YouTube Clip e-chords hide all tabs e-chords go to top tab

share