Ian Dury

Hit me with your rhythm stick

Ian Dury

bass Beginner beginner

by  MONC

save to print version add songbook text version e-mail correct tuner
chordsukulelecavacokeyboardtabbassdrumsharmonicaflute Guitar Pro
close

there isn't a video lesson for this song

chords

Hit me with your rhythm stick

	  		Ian Dury and the Blockheads  Hit me with your rhythm stick 
 
Intro 
 
G|-------------|--------------------------------| 
D|-------------|---3-1-1------------------------| 
A|-------------|---------3-3-1-1-3-3-1-1-3-1----| 
E|-----------1-|-----------------------------4-1| 
 
 
G|---------------------------8-----|--------------------------------| 
D|---3-1-1-----------------6-------|---3-1-1------------------------| 
A|---------3-3-1-1-3-6-h-8---------|---------3-3-1-1-3-3-1-1-3-1----| 
E|-------------------------------1-|-----------------------------4-1| 
 
 
G|---------------------------8-8---|--------------| 
D|---3-1-1-----------------6-------|--------------| 
A|---------3-3-1-1-3-6-h-8---------|-1-1-33----| 
E|---------------------------------|-------------1| 
 
 
G|--------------------------------| 
D|---3-1-1------------------------| 
A|---------3-3-1-1-3-3-1-1-3-1----| 
E|-----------------------------4-1| 
 
G|-------------------------8-8---| 
D|---3-1-1-----------1-3-6-------| 
A|---------3-3-1-1-3-------------| 
E|------------------------------1| 
 
Verse 
 
G|10-8-8------------------------|-----------------------------------| 
D|-------10-10-8-8-6-6-3-3-5-56|--6-3-3----------------3-3-6-3-----| 
A|------------------------------|---------6-6-------6-6---------6-4-| 
E|------------------------------|-------------8-8-------------------| 
 
G|---4---3-3--------------------|-10-8-8--------------------------| 
D|-6---6-----6---3---4---5--6--3|--------10-10-8-8-6-6-3-3--------| 
A|-------------4---4---4--------|--------------------------6-6-7-8| 
E|------------------------------|---------------------------------| 
 
 
G|10-8-8------------------------|--------------------------------| 
D|-------10-10-8-8-6-6-3-3-5-56|--6-3-3-------------3-3-6-3-----| 
A|------------------------------|---------6-6-----6-6--------6-4-| 
E|------------------------------|-------------8-8----------------| 
 
G|---4---3-3--------------------|---------------------------------| 
D|-6---6-----6---3---4---5--6---|---------------------------------| 
A|-------------4---4---4-------6|--6-6-6-6-6-6-6-6-3-5-6-7--------| 
E|------------------------------|---------------------------------| 
 
 
 
 
 
Chorus 
 
G|------------------|----------------| 
D|--3---5------7---5|-----3-------3--| 
A|------------------|----------------| 
E|1---3---5--5---3--|-1-1-----1-1----| 
 
G|------------------|----------------| 
D|--3---5------7---5|-----3-------3--| 
A|------------------|----------------| 
E|1---3---5--5---3--|-1-1-----1-1----| 
 
 
G|---------------------------|--------------------------| 
D|----3------5------6------7-|-----6------7-------6-----| 
A|---------------------------|--------------------------| 
E|1-1----3-3----4-4----5-5---|4-4------5-5----4-4---3--| 
 
G|--------------| 
D|--------------| 
A|-1-1-33----| 
E|-------------1| 
 
Intro 
 
G|-------------|--------------------------------| 
D|-------------|---3-1-1------------------------| 
A|-------------|---------3-3-1-1-3-3-1-1-3-1----| 
E|-----------1-|-----------------------------4-1| 
 
 
G|---------------------------8-8---|--------------| 
D|---3-1-1-----------------6-------|--------------| 
A|---------3-3-1-1-3-6-h-8---------|-1-1-33----| 
E|---------------------------------|-------------1| 
 
 
G|--------------------------------| 
D|---3-1-1------------------------| 
A|---------3-3-1-1-3-3-1-1-3-1----| 
E|-----------------------------4-1| 
 
G|-------------------------8-8---| 
D|---3-1-1-----------1-3-6-------| 
A|---------3-3-1-1-3-------------| 
E|------------------------------1| 
 
Repeat Verse and Chorus 
 
 
Mark 
 
 
 

		  

See also:

bass Soundtracks - Golden Girls - Theme bass The Stranglers - 96 Tears bass Rancid - Lock, Step and Gone bass Rancid - Out of Control bass Soulfly - Back to the Primitive bass Soundtracks - James Bond - Theme
e-chords

Other versions:

bass Ian Dury - Hit me with your rhythm stick
auto scroll beats size up size down change color hide chords drawings
tab show chords e-chords YouTube Clip e-chords hide all tabs e-chords go to top tab

share