I Pixel

Non Importa Se Sto Morendo Se Ad Uccidermi Sei Tu

I Pixel

bass

by  ALEXDERFERRI

save to print version add songbook text version e-mail correct tuner
chordsukulelecavacokeyboardtabbassdrumsharmonicaflute Guitar Pro
close

there isn't a video lesson for this song

chords

Non Importa Se Sto Morendo Se Ad Uccidermi Sei Tu

	  		
G |----|----|----|----------------------------|-------|-------|----| 
D |----|----|----|----------------------------|-------|-------|----| 
A |----|----|----|-----------------------2s---|--7L---|--7----|----| 
E |----|----|----|----------------------------|-------|-------|----| 


-------------------------------------------------------------------------------- 
--------------7--9-----------7-----------------------7-------------------------- 
-----------------------------------------10----------------------10----------7-- 
-------------------------------------------------------------------------------- 


-----------------------||---------------------------| 
-----------------------||o--------------------------| 
---------10------------||o--------------------------| 
-----------------------||-0-----0--0--0--0--2--3L---| 


----------------------------|----------------------------| 
----------------------------|----------------------------| 
----------------------------|--0-----0--0--0--0--0--0----| 
--3--3--3--3--3--0--2--3----|----------------------------| 


-------------------------------------------------------------------------------- 
--------------7--9-----------7-----------------------7-------------------------- 
--0--------------------------------------10----------------------10----------7-- 
-------------------------------------------------------------------------------- 


-----------------------|----------------------------| 
-----------------------|----------------------------| 
---------10------------|----------------------------| 
-----------------------|--0-----0--0--0--0--2--3L---| 


----------------------------|----------------------------| 
----------------------------|----------------------------| 
----------------------------|--0--0--0--0--0--0--0--0----| 
--3--3--3--3--3--0--2--3----|----------------------------| 


----------------------------| 
----------------------------| 
--0--0--0--0----------------| 
--------------3--3--3--3----| 


--------------------------------------2--4-----------------------------------2-- 
-------------------------------------------------------------------------------- 
-------------------------------------------------------------------------------- 
-------------------------------------------------------------------------------- 


--------------------------| 
--------------------------| 
--------------------------| 
---------------------0----| 


--------------------------------------2--4-----------------------------------2-- 
-------------------------------------------------------------------------------- 
-------------------------------------------------------------------------------- 
-------------------------------------------------------------------------------- 


--------------------------| 
--------------------------| 
--------------------------| 
---------------------3----| 


--------------------------------------------------------------------------4s---- 
-------------------------------------------------------------------------------- 
-------------------------------------------------------------------------------- 
-------------------------------------------------------------------------------- 


---9-----------------------------------------------------------------------7---- 
-------------------------------------------------------------------------------- 
-------------------------------------------------------------------------------- 
-------------------------------------------------------------------------------- 


------------------------------------------------| 
------------------------------------------------| 
-------------------------------------------0----| 
------------------------------------------------| 


--------------------------------------------------9s-------12------------------- 
-------------------------------------------------------------------------------- 
-------------------------------------------------------------------------------- 
-------------------------------------------------------------------------------- 


---12L---------------------12----------------------9---------------------------- 
---------------------------------------------------------------------------12--- 
-------------------------------------------------------------------------------- 
-------------------------------------------------------------------------------- 


-------------------9----------------------------| 
------------------------------------------------| 
-------------------------------------------0----| 
------------------------------------------------| 


--------------------------------------2--4-----------------------------------2-- 
-------------------------------------------------------------------------------- 
-------------------------------------------------------------------------------- 
-------------------------------------------------------------------------------- 


--------------------------| 
--------------------------| 
--------------------------| 
---------------------0----| 


--------------------------------------2--4-----------------------------------2-- 
-------------------------------------------------------------------------------- 
-------------------------------------------------------------------------------- 
-------------------------------------------------------------------------------- 


--------------------------| 
--------------------------| 
--------------------------| 
---------------------3----| 


--------------------------------------------------------------------------4s---- 
-------------------------------------------------------------------------------- 
-------------------------------------------------------------------------------- 
-------------------------------------------------------------------------------- 


---9-----------------------------------------------------------------------7---- 
-------------------------------------------------------------------------------- 
-------------------------------------------------------------------------------- 
-------------------------------------------------------------------------------- 


------------------------------------------------| 
------------------------------------------------| 
-------------------------------------------0----| 
------------------------------------------------| 


--------------------------------------------------9s-------12------------------- 
-------------------------------------------------------------------------------- 
-------------------------------------------------------------------------------- 
-------------------------------------------------------------------------------- 


---12L---------------------12----------------------9---------------------------- 
---------------------------------------------------------------------------12--- 
-------------------------------------------------------------------------------- 
-------------------------------------------------------------------------------- 


-------------------9----------------------------|----------------------------| 
------------------------------------------------|----------------------------| 
-------------------------------------------0----|----------------------------| 
------------------------------------------------|--0-----x--0L-0--0--2--3L---| 


----------------------------| 
----------------------------| 
-----2h-0--------0-----0L---| 
--3--------3----------------| 


-------------------------------------------------------------------------------- 
--------------2s-7-----------7-----------7s----------------------2s-7----------- 
--0----------------------------------------------------------------------------- 
-------------------------------------------------------------------------------- 


--------------------------| 
7-----------7L------------| 
--------------------------| 
--------------------------| 


-------------------------------------------------------------------------------- 
--7s----------2s-7-----------7-----------7-----------5-------------------------- 
-----------------------------------------------------------------7-----------5-- 
-------------------------------------------------------------------------------- 


-----------------------|----------------------------| 
-----------------------|----------------------------| 
---------7-------------|----------------------------| 
-----------------------|--0-----x--0L-0--0--2--3L---| 


----------------------------| 
----------------------------| 
-----2h-0--------0-----0L---| 
--3--------3----------------| 


-------------------------------------------------------------------------------- 
--------------2s-7-----------7-----------7s----------------------7s-9----------- 
--0----------------------------------------------------------------------------- 
-------------------------------------------------------------------------------- 


--------------------------| 
9-----------9L------------| 
--------------------------| 
--------------------------| 


-------------------------------------------------------------------------------- 
--9s----------9s-11----------11----------11----------12----------12----------12s 
-------------------------------------------------------------------------------- 
-------------------------------------------------------------------------------- 


-----------------------|----------------------------| 
-----------------------|--5h-7--7--7--5-------------| 
-----------------------|-----------------7--5--7----| 
-----------------------|----------------------------| 


----------------------------|----------------------------| 
--5h-7--7--7--5-------------|--5h-7--7--7--5-------------| 
-----------------7--5--7----|-----------------7--5--7----| 
----------------------------|----------------------------| 


----------------------------|----------------------------| 
--5h-7--7--7--7b----5-------|--5h-7--7--7--5-------------| 
----------------------------|-----------------7--5--7----| 
----------------------------|----------------------------| 


-----4--4--4----------------|----------------------------| 
--5-----------5-------------|--5h-7--7--7--5-------------| 
-----------------7--5--7----|-----------------7--5--7----| 
----------------------------|----------------------------| 


----------------------------|----------------------------| 
--5.------------------------|----------------------------| 
----------------------------|----------------------------| 
--------------------12s-----|--0-----0--0--0--0--2--3L---| 


----------------------------|----------------------------| 
----------------------------|----------------------------| 
----------------------------|--0-----0--0--0--0--0--0----| 
--3--3--3--3--3--0--2--3----|----------------------------| 


-------------------------------------------------------------------------------- 
--------------7--9-----------7-----------------------7-------------------------- 
--0--------------------------------------10----------------------10----------7-- 
-------------------------------------------------------------------------------- 


-----------------------|----------------------------| 
-----------------------|----------------------------| 
---------10------------|----------------------------| 
-----------------------|--0-----0--0--0--0--2--3L---| 


----------------------------|----------------------------| 
----------------------------|----------------------------| 
----------------------------|--0--0--0--0--0--0--0--0----| 
--3--3--3--3--3--0--2--3----|----------------------------| 


----------------------------|----|----|----|----------------------------| 
----------------------------|----|----|----|----------------------------| 
--0--0--0--0----------------|----|----|----|-----------------------2s---| 
--------------3--3--3--3----|----|----|----|----------------------------| 


----------------------------|----------------------------| 
----------------------------|----------------------------| 
--7--7--7--7--7--7--7--7s---|--10-10-10-10-10-10-10-10s--| 
----------------------------|----------------------------| 


----------------------------|----------------------------| 
--------------11-11-11-11---|--12-12-12-12-14-14-14s-----| 
--12-12-12-12---------------|----------------------------| 
----------------------------|----------------------------| 


----------------------------|----------------------------| 
----------------------------|----------------------------| 
----------------------------|-----2h-0--------0-----0L---| 
--0-----x--0L-0--0--2--3L---|--3--------3----------------| 


-------------------------------------------------------------------------------- 
--------------2s-7-----------7-----------7s----------------------2s-7----------- 
--0----------------------------------------------------------------------------- 
-------------------------------------------------------------------------------- 


--------------------------| 
7-----------7L------------| 
--------------------------| 
--------------------------| 


-------------------------------------------------------------------------------- 
--7s----------2s-7-----------7-----------7-----------5-------------------------- 
-----------------------------------------------------------------7-----------5-- 
-------------------------------------------------------------------------------- 


-----------------------|----------------------------| 
-----------------------|----------------------------| 
---------7-------------|----------------------------| 
-----------------------|--0-----x--0L-0--0--2--3L---| 


----------------------------| 
----------------------------| 
-----2h-0--------0-----0L---| 
--3--------3----------------| 


-------------------------------------------------------------------------------- 
--------------2s-7-----------7-----------7s----------------------7s-9----------- 
--0----------------------------------------------------------------------------- 
-------------------------------------------------------------------------------- 


--------------------------| 
9-----------9L------------| 
--------------------------| 
--------------------------| 


-------------------------------------------------------------------------------- 
--9s----------9s-11----------11----------11----------12----------12----------12s 
-------------------------------------------------------------------------------- 
-------------------------------------------------------------------------------- 


-----------------------||---------------------------| 
-----------------------||o---------10L10-10-9--9----| 
-----------------------||o10-10-10------------------| 
-----------------------||---------------------------| 


----------------------------|----------------------------| 
-----------9L-9--9--7--7----|----------------------------| 
--9--9--9-------------------|--7--7--7--7--7--7--7--7----| 
----------------------------|----------------------------| 


----------------------------|----------------------------| 
----------------------------|-----------10L10-10-9--9----| 
--7--7--7--7s-9--9--9--9----|--10-10-10------------------| 
----------------------------|----------------------------| 


----------------------------|----------------------------| 
-----------9L-9--9--7--7----|----------------------------| 
--9--9--9-------------------|--7--7--7--7--7--7--7--7----| 
----------------------------|----------------------------| 


----------------------------|----------------------------| 
----------------------------|-----------10L10-10-9--9----| 
--7--7--7--7s-9--9--9--9----|--10-10-10------------------| 
----------------------------|----------------------------| 


----------------------------|----------------------------| 
-----------9L-9--9--7--7----|----------------------------| 
--9--9--9-------------------|--7--7--7--7--7--7--7--7----| 
----------------------------|----------------------------| 


----------------------------|----------------------------| 
----------------------------|-----------10L10-10-9--9----| 
--7--7--7--7s-9--9--9--9----|--10-10-10------------------| 
----------------------------|----------------------------| 


----------------------------|----------------------------|-------|----|----| 
-----------9L-9--9--7--7----|----------------------------|-------|----|----| 
--9--9--9-------------------|--------7L------------------|--7~---|----|----| 
----------------------------|--x--x----------------------|-------|----|----| 


----|----|----|----| 
----|----|----|----| 
----|----|----|----| 
----|----|----|----| 


--------------------------------------2--4-----------------------------------2-- 
-------------------------------------------------------------------------------- 
-------------------------------------------------------------------------------- 
-------------------------------------------------------------------------------- 


--------------------------| 
--------------------------| 
--------------------------| 
---------------------0----| 


--------------------------------------2--4-----------------------------------2-- 
-------------------------------------------------------------------------------- 
-------------------------------------------------------------------------------- 
-------------------------------------------------------------------------------- 


--------------------------| 
--------------------------| 
--------------------------| 
---------------------3----| 


--------------------------------------------------------------------------4s---- 
-------------------------------------------------------------------------------- 
-------------------------------------------------------------------------------- 
-------------------------------------------------------------------------------- 


---9-----------------------------------------------------------------------7---- 
-------------------------------------------------------------------------------- 
-------------------------------------------------------------------------------- 
-------------------------------------------------------------------------------- 


------------------------------------------------| 
------------------------------------------------| 
-------------------------------------------0----| 
------------------------------------------------| 


--------------------------------------------------9s-------12------------------- 
-------------------------------------------------------------------------------- 
-------------------------------------------------------------------------------- 
-------------------------------------------------------------------------------- 


---12L---------------------12----------------------9---------------------------- 
---------------------------------------------------------------------------12--- 
-------------------------------------------------------------------------------- 
-------------------------------------------------------------------------------- 


-------------------9----------------------------| 
------------------------------------------------| 
-------------------------------------------0----| 
------------------------------------------------| 


--------------------------------------2--4-----------------------------------2-- 
-------------------------------------------------------------------------------- 
-------------------------------------------------------------------------------- 
-------------------------------------------------------------------------------- 


--------------------------| 
--------------------------| 
--------------------------| 
---------------------0----| 


--------------------------------------2--4-----------------------------------2-- 
-------------------------------------------------------------------------------- 
-------------------------------------------------------------------------------- 
-------------------------------------------------------------------------------- 


--------------------------| 
--------------------------| 
--------------------------| 
---------------------3----| 


--------------------------------------------------------------------------4s---- 
-------------------------------------------------------------------------------- 
-------------------------------------------------------------------------------- 
-------------------------------------------------------------------------------- 


---9-----------------------------------------------------------------------7---- 
-------------------------------------------------------------------------------- 
-------------------------------------------------------------------------------- 
-------------------------------------------------------------------------------- 


------------------------------------------------| 
------------------------------------------------| 
-------------------------------------------0----| 
------------------------------------------------| 


--------------------------9s-------12----------------------9-------------------- 
-------------------------------------------------------------------------------- 
-------------------------------------------------------------------------------- 
-------------------------------------------------------------------------------- 


---------------------------9---------------------------------------------------- 
---12----------------------------------------------12----------------------9---- 
-------------------------------------------------------------------------------- 
-------------------------------------------------------------------------------- 


------------------------------------------------|----------------------------| 
------------------------------------------------|-----------10L10-10-9--9----| 
-------------------12----------------------0----|--10-10-10------------------| 
------------------------------------------------|----------------------------| 


----------------------------|----------------------------| 
-----------9L-9--9--7--7----|----------------------------| 
--9--9--9-------------------|--7--7--7--7--7--7--7--7----| 
----------------------------|----------------------------| 


----------------------------|----------------------------| 
----------------------------|-----------10L10-10-9--9----| 
--7--7--7--7s-9--9--9--9----|--10-10-10------------------| 
----------------------------|----------------------------| 


----------------------------|----------------------------| 
-----------9L-9--9--7--7----|----------------------------| 
--9--9--9-------------------|--7--7--7--7--7--7--7--7----| 
----------------------------|----------------------------| 


----------------------------|----------------------------| 
----------------------------|-----------10L10-10-9--9----| 
--7--7--7--7s-9--9--9--9----|--10-10-10------------------| 
----------------------------|----------------------------| 


----------------------------|----------------------------| 
-----------9L-9--9--7--7----|----------------------------| 
--9--9--9-------------------|--7--7--7--7--7--7--7--7----| 
----------------------------|----------------------------| 


----------------------------|----------------------------| 
----------------------------|-----------10L10-10-9--9----| 
--7--7--7--7s-9--9--9--9----|--10-10-10------------------| 
----------------------------|----------------------------| 


----------------------------|----------------------------|-------|----| 
-----------9L-9--9--7--7----|----------------------------|-------|----| 
--9--9--9-------------------|--------7L------------------|--7~---|----| 
----------------------------|--x--x----------------------|-------|----| 


--6-------------------------| 
-----------7--------5-------| 
----------------------------| 
----------------------------| 


-------------------------------------------------------------------------------- 
-------------------------------------------------------------------------------- 
--7-----------------------------------------------------------------------5h-7-- 
-------------------------------------------------------------------------------- 


-----------------------|----------------------------| 
-----------------------|----------------------------| 
-----------------------|--5L----------5-------------| 
-----------------------|-----------------5--3--0----| 


----------------------------|--6-------------------------|| 
----------------------------|-----------7--------5-------|| 
--5h-7.----7L----------7----|----------------------------|| 
----------------------------|----------------------------|| 


-------------9-------------|--------------6-------------| 
o------9--------9-----9----|--------7--------7-----7----| 
o7--7-----7--------7-------|--5--5-----5--------5-------| 
---------------------------|----------------------------| 


----------------------------| 
--------------7--------6----| 
--------7--------7----------| 
--5--5-----5--------5-------| 


-------------------------------------------------------------------------------- 
--------------------------7-----------------------------------7h-9-----------7-- 
--7-----------------------------------7----------------------------------------- 
--------------5-----------------------------------5----------------------------- 


----------------------||--------------9-------------| 
---------------------o||--------9--------9-----9----| 
---------10----------o||--7--7-----7--------7-------| 
----------------------||----------------------------| 


--------------12------------|--------------14------------| 
--------12-------12----12---|--------14-------14----14---| 
--10-10----10-------10------|--12-12----12-------12------| 
----------------------------|----------------------------| 


--------------14------------|--------------9-------------| 
--------14-------14----14---|--------9--------9-----9----| 
--12-12----12-------12------|--7--7-----7--------7-------| 
----------------------------|----------------------------| 


--------------12------------|--------------14------------| 
--------12-------12----12---|--------14-------14----14---| 
--10-10----10-------10------|--12-12----12-------12------| 
----------------------------|----------------------------| 


--------------14s16-14------|-------|| 
--------14-------------17---|--14---|| 
--12-12----12---------------|-------|| 
----------------------------|-------|| 
		  

See also:

bass Deep Purple - Smoke On The Waterr bass Deep Purple - Knocking At Your Back Door bass Deep Purple - Space Truckin' bass Deep Purple - Burn Ver.(2) bass Deep Purple - Black Night bass Deep Purple - Ted The Mechanic
e-chords

Other versions:

bass I Pixel - Non Importa Se Sto Morendo Se Ad Uccidermi Sei Tu
auto scroll beats size up size down change color hide chords drawings
tab show chords e-chords YouTube Clip e-chords hide all tabs e-chords go to top tab

share