Homeshake

Getting Down Pt Ii Hes Cooling Down

Homeshake

bass

by  ROBEPOIEL

save to print version add songbook text version e-mail correct tuner
chordsukulelecavacokeyboardtabbassdrumsharmonicaflute Guitar Pro
close

there isn't a video lesson for this song

chords

Getting Down Pt Ii Hes Cooling Down

	  		
Intro (If you want to mimick the cell phone for fun) 
G|-10------10-| 
D|------------| 
A|------------| 
E|------------| 

Intro (0:04-0:12) 
G|----------------------------------------------| 
D|--------------------------------------------6-| 
A|--------------4-2-4-2------7-5-7-5-----5-7----| 
E|-3-1-3-1--------------------------------------| 

verse 1 (0:12-0:59) 
G|-----------------------| 
D|-8----8/10-8-----------| 
A|---8----------8-8---10-| 
E|------------------8----| 

Instrumental (1:00-1:08) 
G|----------------------------------------------| 
D|--------------------------------------------6-| 
A|--------------4-2-4-2------7-5-7-5-----5-7----| 
E|-3-1-3-1--------------------------------------| 

(1:09-1:11) 
G|-----------------------| 
D|-8----8/10-8-----------| 
A|---8----------8-8---10-| 
E|------------------8----| 

(1:12-1:14) 
G|-------------| 
D|-8----8/10-8-| 
A|---8---------| 
E|-------------| 

verse 2 (1:32-1:48) 
G|-----------------------| 
D|-8----8/10-8-----------| 
A|---8----------8-8---10-| 
E|------------------8----| 
(1:48-1:55) 
G|----------------------------------------------| 
D|--------------------------------------------6-| 
A|--------------4-2-4-2------7-5-7-5-----5-7----| 
E|-3-1-3-1--------------------------------------| 

************************************ 

| /   slide up 

************************************ 
		  

See also:

bass Deep Purple - Burn bass Deep Purple - Child in time bass Deep Purple - Smoke On The Water bass Deep Purple - Lady Double Dealer bass Deep Purple - Fire Ball bass Deep Purple - Smoke On The Water (ver. 3)
e-chords

Other versions:

bass Homeshake - Getting Down Pt Ii Hes Cooling Down
auto scroll beats size up size down change color hide chords drawings
tab show chords e-chords YouTube Clip e-chords hide all tabs e-chords go to top tab

share