Hillsong United

home > Hillsong United

Lead Me to the Cross Bass Tab

Hillsong United

Difficulty: nolevelnolevel

by aleffederico

tuner correct add songbook print version text version save to e-mail
chordsukulelecavacokeyboardtabbassdrumsharmonicsflute Guitar Pro
chords

Lead Me to the Cross

Year: 2007 - Album: All of the Above

  		
Start with electric 
G|-----------------------------| 
D|-----------------------------| 
A|-2-2--2----------------5-5-4-| 
E|-----2-------3-3--3---5------| 
B|-----------------3-----------| 

G|-------------------------------| 
D|-------------------------------| 
A|-2-2--2---0-0-----------5-5-4--| 
E|-----2----------3-3--3---------| 
B|--------------------3----------| 

Verse: 
G|----------------------------| 
D|----------------------------| 
A|-2-2--2---2-2---------------| 
E|-----2----------5-5--5--5-5-| 
B|--------------------5-------| 

G|----------------------------------| 
D|--------------5--3----------------| 
A|------------5------5-5--5--4-4--5-| 
E|-3-3--3--3------------5-----------| 
B|-----3----------------------------| 

G|-------------------------------| 
D|-------------------------------| 
A|-2-2--2---2-2-----------5s7s12-| 
E|-----2----------5-5--5---------| 
B|--------------------5----------| 

G|-----------------------------------| 
D|--------------5--------------------| 
A|------------5------5-5--5---4-4--4-| 
E|-3-3--3--3------------5---------5--| 
B|-----3-----------------------------| 

Pre-Chorus 
G|------------------------------------------------------| 
D|------------------------------------------------------| 
A|-7-5------------0-0-0----------------------------s10--| 
E|-----7-3-0----0----0---5--7-7-7-7-5-5-5-5-3-3-3-3-----| 
B|------------------------------------------------------| 

Chorus 1 
G|--------------------------------------------| 
D|--------------------------------------------|     
A|-------------5-5--5--7----------------------| 
E|-3-3--3--5-7-----5-----5-5--5---5-5---5-7-5-| 
B|-----3---------------------5---5----5-------|  

G|------------------------------------------| 
D|------------------------------------------| 
A|-------------5-5--5--7--------------------|      
E|-3-3--3--5-7-----5-----5-5--5-5-7-7--7--5-| 
B|-----3---------------------5--------7-----| 

G|---------------------------------------| 
D|---------------------------------------| 
A|-------------5-5--5-7------------------| 
E|-3-3--3--5-7-----5----5-5--5---5-5---5-| 
B|-----3--------------------5--------5---| 

G|------------------------------------------| 
D|------------------------------------------| 
A|-----7-5----------------------------------| 
E|-5-7-----7-3-0--0-0--0--3-3--3--5-5-5-5---| 
B|-------------------0--------3-----------0-| 
  

Bridge (start on the 3rd| ..to your cross... 
G|-----------------------------------------------| 
D|----------------------555555557777777777777777-| 
A|-17--10--12---55555555-------------------------| 
E|-----------------------------------------------| 
B|-----------------------------------------------| 

Chorus 2 

G|--------------------------------------------| 
D|--------------------------------------------|     
A|-------------5-5--5--7----------------------| 
E|-3-3--3--5-7-----5-----5-5--5---5-5---5-7-5-| 
B|-----3---------------------5---5----5-------|  

G|------------------------------------------| 
D|------------------------------------------| 
A|-------------5-5--5--7--------------------|      
E|-3-3--3--5-7-----5-----5-5--5-5-7-7--7--5-| 
B|-----3---------------------5--------7-----| 

G|---------------------------------------| 
D|---------------------------------------| 
A|-------------5-5--5-7------------------| 
E|-3-3--3--5-7-----5----5-5--5---5-5---5-| 
B|-----3--------------------5--------5---| 

G|-----------------------------------------| 
D|-----------------------------------------| 
A|-----7-5---------------------------------| 
E|-5-7-----7-3-0--0-0--0--3-3--3--5-5-5-5--| 
B|-------------------0--------3------------| 
  
Ending 

G|--------------------------------------------| 
D|--------------------------------------------|     
A|-------------5-5--5--7----------------------| 
E|-3-3--3--5-7-----5-----5-5--5---5-5---5-7-5-| 
B|-----3---------------------5---5----5-------|  

G|------------------------------------------| 
D|------------------------------------------| 
A|-------------5-5--5--7--------------------|      
E|-3-3--3--5-7-----5-----5-5--5-5-7-7--7--5-| 
B|-----3---------------------5--------7-----| 

G|---------------------------------------| 
D|---------------------------------------| 
A|-------------5-5--5-7------------------| 
E|-3-3--3--5-7-----5----5-5--5---5-5---5-| 
B|-----3--------------------5--------5---| 

G|----------------------------------------------| 
D|----------------------------------------------| 
A|-----7-5----------------------------------s12-| 
E|-5-7-----7-3-0----0--0--3-3-33333333555555----| 
B|-------------------0--------------------------| 
	  

Search Paypal
auto scroll beats size up size down change color hide chords drawings
tab show chords e-chords YouTube Clip e-chords hide all tabs e-chords go to top tab