Hillsong Australia

home > Hillsong Australia

Shout Of The King Bass Tab

Hillsong Australia

Difficulty: ExpertExpert

by cesarmatos

tuner correct add songbook print version text version save to e-mail
chordsukulelecavacokeyboardtabbassdrumsharmonicsflute Guitar Pro
chords

Shout Of The King

  		Shout of the king - Hillsong 

Intro: Em D/F# G Asus Cmaj7 D (3x)  obs: baixo entra na 2ª vez 

|------------------------------------------------------------------------------------------------------------- 
|------------------------------------------------------------------------------------------------------------- 
|-----------------------------------00000000 2222222222222222 5555555555555555------------------ 
|00000000 22222222 33333333--------------------------------------------------------------------------- 

Parte 1 e 2 da música - é complicada, nao sei escrever corretamente, tocar notar secas, sem 
deixar o som. 

|------------------------------------------------------------------------------------------------------------- 
|--------2----4 7----2---4-7~4------------------------------------------------------------------------------ 
|-----------5------3---5--------5---------------------------------------------------------------------------- 
|-0 2 3------------------------------------------------------------------------------------------------------- 

* tocar assim 7 vezes como acima e a 8ª acrescenta o Asus2 para ir pro Refrão 

|------------------------------------------------------------------------------------------------------------- 
|--------2----4 7----2---4-7~4------------------------------------------------------------------------------ 
|-----------5------3---5--------5-00000000---------------------------------------------------------------- 
|-0 2 3------------------------------------------------------------------------------------------------------- 

Refrão (4x) 

|------------------------------------------------------------------------------------------------------------- 
|------------------------------------------------------------------------------------------------------------- 
|-----------------------------------00000000 2222222222222222 5555555555555555------------------ 
|00000000 22222222 33333333--------------------------------------------------------------------------- 

Passagem pra musica de novo  

|------------------------------------------------------------------------------------------------------------- 
|------------------------------------------------------------------------------------------------------------- 
|-----------------------------------00000000 2222222222222222 5555555555555555------------------ 
|00000000 22222222 33333333--------------------------------------------------------------------------- 

Como descrito Acima. 

Refrão (4x) 

Passagem pra outra parte 

|------------------------------------------------------------------------------------------------------------- 
|------------------------------------------------------------------------------------------------------------- 
|-----------------------------------00000000 2222222222222222 5555555555555555------------------ 
|00000000 22222222 33333333--------------------------------------------------------------------------- 

ai segue, escuta a musica que da pra tentar pegar 
	  

Full key step upFull key step up
Half key step upHalf key step up
Half key step downHalf key step down
Full key step downFull key step down
Search Paypal
auto scroll beats size up size down change color hide chords drawings
tab show chords e-chords YouTube Clip e-chords hide all tabs e-chords go to top tab