Heroes del silencio

Metamorfosis

Heroes del silencio

bass

by  RODR_AEH

save to print version add songbook text version e-mail correct tuner
chordsukulelecavacokeyboardtabbassdrumsharmonicaflute Guitar Pro
close

there isn't a video lesson for this song

chords

Metamorfosis

	  		Autor: (zumo de Vidrio)pedro Valdivia ,juan Valdivia,enri 


METAMORFOSIS 
Ke onda amigos aqui les traigo otravez 
otra de los heroes cuando eran 
zumo de vidrio se que les habia prometido 
el caos pero oi esta y me gusto mucho 
como se oia el bajo asi que aqui esta 
es del cd Primeros tiempos (pirata) 


Intro: Guitarra bajo y bateria 

G/--------------------------/ 
D/--------------------------/  x2 
A/---6------5-----4------3--/ 
E/--------------------------/ 

G/--------------------------------------------------------------------/ 
D/-------5--8--7--5------------------------------6-6---4-4---3-3---1-1/ 
A/---6-----------------5--8--6--5---4--3--1---------------------------/ 
E/---------------------------------------------4----------------------/ 

                                                          X2 

Versos 

G/------------------/ 
D/------------------/ 
A/----6---5---4---3-/ 
E/------------------/ 



has vuelto a caer en tu pueblo 
será eso un deshonor 
quedate mas tiempo 
tras el fuego del dolor 

ceniza muerta en tu piel 
nuevas escamas de oro 
castigo por no ser fiel 
a tu dios y a nosotros 

puente 
G/----------------------------------------------/ 
D/----------------------------6-6--4-4--3-3—1-1-/ x2 
A/---6-6-6--5-5-5--4-4-4------------------------/ 
E/----------------------------------------------/ 

Versos 

G/--------------------/ 
D/--------------------/ 
A/-----6---5---4---3--/ 
E/--------------------/ 

has derrumbado a tu pueblo, 
apostamento de la evolución 
has tenido el descaro, 
mucha arma de revolución. 


G/-------------------------------------------------------------------/ 
D/-----5--8--7--5-------------------------------6-6---4-4---3-3---1-1/ 
A/-6-----------------5--8--6--5----4--3--1---------------------------/ 
E/--------------------------------------------4----------------------/ 
                                   X2 

G/--------------------------------------------/ 
D/--------------------------6-6--4-4--3-3—1-1-/ x2 
A/-----6---5---4----3-------------------------/ 
E/--------------------------------------------/ 


Solo de bateria 

G/--------------------------------------------------------------------/ 
D/-------5--8--7--5------------------------------6-6---4-4---3-3---1-1/ 
A/---6----------------5--8--6--5----4--3--1---------------------------/ 
E/---------------------------------------------4----------------------/ 

                                              X2 
Versos 

G/-------------------/ 
D/-------------------/ 
A/-----6---5---4---3-/ 
E/-------------------/ 

tu fuerza ha cambiado 
salamandra de fuego azul 
y un hombre ha cambiado 
lucifer portador de la luz oh, 
oh, de la luz oh, oh, de la luz 


G/-----------------------------------------------------------------------/ 
D/-------5--8--7--5---------------------------------6-6---4-4---3-3---1-1/ 
A/---6------------------5--8--6--5-----4--3--1---------------------------/ 
E/------------------------------------------------4----------------------/ 

G/------------------------------------------/ 
D/------------------------6-6--4-4--3-3—1-1-/ x2 
A/-----6---5---4----3-----------------------/ 
E/------------------------------------------/ 

Fin
		  

auto scroll beats size up size down change color hide chords drawings
tab show chords e-chords YouTube Clip e-chords hide all tabs e-chords go to top tab

share