Herbie Hancock

home > Herbie Hancock

Cantaloupe Island Bass Tab

Herbie Hancock

Difficulty: nolevelnolevel

by Teusalves

tuner correct add songbook print version text version save to e-mail
chordsukulelecavacokeyboardtabbassdrumsharmonicsflute Guitar Pro
chords

Cantaloupe Island

	  Base 


---------------------------------------------------------------- 
-------1-3--------1-3--------1-3--------1-3--------------------- 
----3----------3----------3----------3-------------------------- 
-1----------1----------1----------1----------------------------- 


---------------------------------------------------------------- 
-------1-3--------1-3--------1-3--------1-3--------------------- 
----3----------3----------3----------3-------------------------- 
-1----------1----------1----------1----------------------------- 



-------4-6--------4-6--------4-6--------4-6--------------------- 
----6----------6----------6----------6-------------------------- 
-4----------4----------4----------4----------------------------- 
---------------------------------------------------------------- 



---------------------------------------------------------------- 
---------------------------------------------------------------- 
--5--5----5--5----5--5----5--5---------------------------------- 
---------------------------------------------------------------- 


Tema Solo 

-------------13-15-15---15-13-15-17----------------------------- 
--15-15---15------------------------13-15----------------------- 
---------------------------------------------------------------- 
---------------------------------------------------------------- 



-------------13-15-15---15-13-15-17----------------------------- 
--15-15---15------------------------13-15----------------------- 
---------------------------------------------------------------- 
---------------------------------------------------------------- 



--17-20-17-20-------------17-20-17-20--------------------------- 
----------------15--15------------------15--15------15-15\------ 
---------------------------------------------------------------- 
---------------------------------------------------------------- 
	  

there isn't a video lesson for this song

request
Search
auto scroll beats size up size down change color hide chords drawings
tab show chords e-chords YouTube Clip e-chords hide all tabs e-chords go to top tab