Henry Mancini

home > Henry Mancini

A Pantera Cor de Rosa Bass Tab

Henry Mancini

Difficulty: EasyEasy

by Acelot

tuner correct add songbook print version text version save to e-mail
chordsukulelecavacokeyboardtabbassdrumsharmonicsflute Guitar Pro
chords

A Pantera Cor de Rosa

(Henry Mancini)

	  
G|-------------------|-----------------5-4---0---4-3---2-0-------| 
D|-6/7--8/9--8/7-6/5-|-----4-5-----4-5-----2---2-----------2-0-2-| 
A|-4/5--6/7--6/5-4/3-|-6-7-----6-7-------------------------------| 
E|-------------------|-------------------------------------------| 

G|---------------------5-4----4----9-8-------| 
D|--------4-5------4-5------5----------7-----| 
A|---6-7-------6-7-----------------------6---| 
E|-----------------------------------------5-| 

G|-------------------5-4---0---4-3--2-0--------\9-7-------------------| 
D|------4-5------4-5-----2---2----------2-0--2------9-7------8-/8/8/8-| 
A|-6-7-------6-7----------------------------------------10-7----------| 
E|--------------------------------------------------------------------| 

G|-----------------------------------------------------------------| 
D|-5-------9----8\7-6-5-------5--6/7--8-5-------9--8\7-6-5-------5-| 
A|---7-5-7-7----6\5-4---7-5-7-3--4/5--6---7-5-7-7--6\5-4---7-5-7-3-| 
E|-----------------------------------------------------------------| 

G|----------------------------| 
D|--6/7---8/9------8\7--6\5---| 
A|--4/5---6/7------6\5--4\3---| 
E|----------------------------| 
	  

there isn't a video lesson for this song

request
Search
auto scroll beats size up size down change color hide chords drawings
tab show chords e-chords YouTube Clip e-chords hide all tabs e-chords go to top tab