Helloween

home > Helloween

Wake Up The Mountain Bass Tab

Helloween

Difficulty: nolevelnolevel

by eduardo%5Flyvio

tuner correct add songbook print version text version save to e-mail
chordsukulelecavacokeyboardtabbassdrumsharmonicsflute Guitar Pro
chords

Wake Up The Mountain

Year: 1996 - Album: The Time of the Oath

  		Tune: Eb Ab Db Gb 
 
Intro                              
Gb-----------------|-----------------|-----------------|------------|--- 
Db-----------------|-----------------|-----------------|------------|--- 
Ab-(5)--------5-5--|--(5)------------|-3-3-3-3-3-3-0---|-(0)----1-3-|--- 
Eb-----------------|-----------------|-----------------|------------|--- 
 
Gb-----------------|-----------------|-----------------|-------8-6-------|--- 
Db-----------------|-----------------|-----------------|---7-9-----7-----|--- 
Ab-5--------5-5----|--(5)------------|-3-3-3-3-3-3-1-1-|-1-----------7-7-|--- 
Eb-----------------|-----------------|-----------------|-----------------|--- 
 
Gb-----------------|-----------------|-----------------|-------------|--- 
Db-----------------|-----------------|-----------------|-------------|--- 
Ab-5-5-5-5-5-5-5-5-|-5-5-5-5-5-5-5-5-|-3-3-3-3-3-3-0---|-0-0-0-0-1-3-|--- 
Eb-----------------|-----------------|-----------------|-------------|--- 
 
Gb-----------------|-----------------|-----------------|-----------------|--- 
Db-----------------|-----------------|-----------------|-----------------|--- 
Ab-(5)-5-5-5-5-5-5-|-5-5-5-5-5-5-5-5-|-3-3-3-3-3-3-1---|-1-1-1-1-1-1-1-1-|--- 
Eb-----------------|-----------------|-----------------|-----------------|--- 
 
Gb-----------------|-----------------|-----------------|--- 
Db-----------------|-----------------|-----------------|--- 
Ab-3-3-3-3-3-3-3-3-|-1-1-1-1-1-1-1-1-|-----1-------3---|--- 
Eb-----------------|-----------------|-----------------|--- 
 
Enter Vocals 
 
Gb--------------|--------------|--------------|-------------------|--- 
Db--------------|--------------|--------------|-------------------|--- 
Ab--------------|---------1-2--|-3-3-3-3-3-3--|-1--1----1-3-------|--- 
Eb-3-3-3-3-3-3--|-1-2-3-3------|--------------|---------------1-2-|--- 
 
 
Gb--------------|--------------|--------------|------------|--- 
Db--------------|--------------|--------------|------------|--- 
Ab--------------|---------1-2--|-3-3-3-3-3-3--|------------|--- 
Eb-3-3-3-3-3-3--|-1-2-3-3------|--------------|--6---------|--- 
 
Riff 1  
 
Gb-----------------|-----------------|-----------------|------------------|--- 
Db-----------------|-----------------|-----------------|------------------|--- 
Ab-----------------|-----------------|-3-3-3-3-3---3-1-|-1-1-1-1--1-3-----|--- 
Eb-3-3-3-3-6-5-3-3-|-3-3-3-3-6-5-3-3-|-----------3-----|--------------1-2-|--- 
 
 
Gb-----------------|-----------------|-----------------|-----------------|--- 
Db-----------------|-----------------|-----------------|---------2-3-5-0-|--- 
Ab-----------------|-----------------|-3-3-3-3-3---3-1-|-1-1-1-1---------|--- 
Eb-3-3-3-3-6-5-3-3-|-3-3-3-3-6-5-3-3-|-----------3-----|-----------------|--- 
 
Bridge 
 
Gb-----------------|-----------------|-----------------|-----------------|--- 
Db-----------------|---------0-------|-----------------|-----------------|--- 
Ab-3-3-3-3-3-3---3-|-3-3-3-3---3-1-0-|-----------------|-----------------|--- 
Eb-------------3---|-----------------|-3-3-3-3-3-3-1-3-|-3-3-3-3-3-3-3-3-|--- 
 
 
Gb-----------------|-----------------|-----------------|-----------------|--- 
Db-----------------|---------0-------|-----------------|-----------------|--- 
Ab-3-3-3-3-3-3---3-|-3-3-3-3---3-1-0-|-----------------|-----------------|--- 
Eb-------------3---|-----------------|-3-3-3-3-3-3-3-3-|-5-5-5-5-5-5-5-5-|--- 
 
Chorus 
 
Gb-----------------|-----------------|-----------------|-------------|--- 
Db-----------------|-----------------|-------------7-7-|-7-7-7-7-3-2-|--- 
Ab-5-5-5-5-5-5-5-5-|-5-5-5-5-5-5-5-5-|-3-3-3-3-3-3-----|-------------|--- 
Eb-----------------|-----------------|-----------------|-------------|--- 
 
 
Gb-----------5-7---|-7---------------|-----------------|-----------------|--- 
Db---------7-------|-----------------|-----------------|-----------------|--- 
Ab-5-5-5-5---------|---3-3-3-3-3-3-3-|-3-3-3-3-3-3-1-1-|-1-1-1-1-1-1-3-3-|--- 
Eb-----------------|-----------------|-----------------|-----------------|--- 
 
 
Gb-----------------|-----------------|-----------------|-------------|--- 
Db-----------------|-----------------|-------------7-7-|-7-7-7-7-3-2-|--- 
Ab-5-5-5-5---3-5---|-5-5-5-5-5-5-5-5-|-3-3-3-3-3-3-----|-------------|--- 
Eb---------3-------|-----------------|-----------------|-------------|--- 
 
 
Gb-----------5-7---|-7---------------|-----------------|-----------------|--- 
Db---------7-------|-----------------|-----------------|-----------------|--- 
Ab-5-5-5-5---------|---5-5-5-5-5-5-5-|-3-3-3-3-3-3-1-1-|-1-1-1-1-1-1-3-3-|--- 
Eb-----------------|-----------------|-----------------|-----------------|--- 
 
Repeat Enter Vocals part and Bridge. 
 
 
Chorus II 
 
Gb-----------------|-----------------|-----------------|-------------|--- 
Db-----------------|-----------------|-------------7-7-|-7-7-7-7-3-2-|--- 
Ab-5-5-5-5-5-5-5-5-|-5-5-5-5-5-5-5-5-|-3-3-3-3-3-3-----|-------------|--- 
Eb-----------------|-----------------|-----------------|-------------|--- 
 
 
Gb-----------5-7---|-7---------------|-----------------|-----------------|--- 
Db---------7-------|-----------------|-----------------|-----------------|--- 
Ab-5-5-5-5---------|---3-3-3-3-3-3-3-|-3-3-3-3-3-3-1-1-|-1-1-1-1-1-1-3-3-|--- 
Eb-----------------|-----------------|-----------------|-----------------|--- 
 
 
Gb-----------------|-----------------|-----------------|-------------|--- 
Db-----------------|-----------------|-------------7-7-|-7-7-7-7-3-2-|--- 
Ab-5-5-5-5---3-5---|-5-5-5-5-5-5-5-5-|-3-3-3-3-3-3-----|-------------|--- 
Eb---------3-------|-----------------|-----------------|-------------|--- 
 
 
Gb-----------5-7---|-7---------------|-----------------|-7-5--------------|--- 
Db---------7-------|-----------------|-----------------|-----7-7-5--------|--- 
Ab-5-5-5-5---------|---5-5-5-5-5-5-5-|-3-3-3-3-3-3-3-3-|-----------8------|--- 
Eb-----------------|-----------------|-----------------|-------------6----|--- 
 
 
Gb-----------------|--- 
Db-----------------|--- 
Ab------1-----3----|--- 
Eb-(6)-------------|--- 
 
 
Bridge II 
 
Gb--------------|-------------|-------------|--------------|--- 
Db--------------|-------------|-------------|--------------|--- 
Ab--------------|-------------|-------------|--------------|--- 
Eb--3--3--1--3--|-3--3--1--3--|-3--3--1--3--|--3--3--1--3--|--- 
 
 
Gb--------------|-------------|-------------|-------------|--- 
Db--------------|-------------|-------------|-------------|--- 
Ab--------------|-------------|-------------|-------------|--- 
Eb--3--3--1--3--|-3--3--1--3--|-3--3--1--3--|-3--3--1--3--|--- 
 
 
Gb--------------|--------------|---------------|-----------------|--- 
Db--------------|--------------|---------------|-----------------|--- 
Ab--------------|--------------|---------------|-----------------|--- 
Eb--3--3--1--3--|--5--5--1--3--|-3-3-3-3-1-1-3-|-3-3-3-3-3-3-3-3-|--- 
 
Solo. 
 
Gb---------------|-----------------|---------------|-----------------|--- 
Db---------------|-----------------|---------------|-----------------|--- 
Ab-3-3-3-3-3-1-3-|-3-3-3-3-3-3-3-3-|---------------|-----------------|--- 
Eb---------------|-----------------|-3-3-3-3-3-1-3-|-3-3-3-3-3-3-3-3-|--- 
 
 
Gb---------------|-----------------|---------------|-----------------|--- 
Db---------------|-----------------|---------------|-----------------|--- 
Ab-3-3-3-3-3-1-3-|-3-3-3-3-3-3-3-3-|---------------|-----------------|--- 
Eb---------------|-----------------|-3-3-3-3-3-3-3-|-1-1-1-1-1-1-1-1-|--- 
 
 
Gb-----------------|-----------------|--- 
Db-1-1-1-1-1-1-1-1-|-3-3-3-3-3-3-3-3-|--- 
Ab-----------------|-----------------|--- 
Eb-----------------|-----------------|--- 
 
Only Bass. 
 
Gb-------------------------|--------------------|--- 
Db-----------------------3-|--------------------|--- 
Ab-5-5-3-3-5--3-5-3-3-5----|-5-5--------------3-|--- 
Eb-------------------------|-----1-1-3-3-4--5---|--- 
 
 
Duet. 
 
Gb-----------------|-----------------|----------|----------|--- 
Db-----------------|-----------------|----------|----------|--- 
Ab-5-5-5-5-7-7-7-7-|-8-8-8-8-5-5-5-5-|-4-4-4-4--|-0-0-0-0--|--- 
Eb-----------------|-----------------|----------|----------|--- 
 
 
Gb-----------------|-----------------|----------|----------|--- 
Db-----------------|-----------------|----------|----------|--- 
Ab-5-5-5-5-7-7-7-7-|-8-8-8-8-5-5-5-5-|-4-4-4-4--|----------|--- 
Eb-----------------|-----------------|----------|-6-6-6-6--|--- 
 
 
Gb----------|----------|-----------------|--- 
Db----------|----------|-----------------|--- 
Ab----------|----------|-8-8-8-8-7-7-7-7-|--- 
Eb-5-5-5-5--|-3-3-3-3--|-----------------|--- 
 
 
Gb-----------------|-----------------|----------|----------|--- 
Db-----------------|-----------------|----------|----------|--- 
Ab-5-5-5-5-7-7-7-7-|-8-8-8-8-5-5-5-5-|-4-4-4-4--|----------|--- 
Eb-----------------|-----------------|----------|-5-5-5-5--|--- 
 
 
Gb-----------------|-----------------|----------|----------|--- 
Db-----------------|-----------------|----------|----------|--- 
Ab-5-5-5-5-7-7-7-7-|-8-8-8-8-5-5-5-5-|-4-4-4-4--|----------|--- 
Eb-----------------|-----------------|----------|-6-6-6-6--|--- 
 
 
Gb----------|----------|-----------------|--- 
Db----------|----------|-----------------|--- 
Ab----------|----------|-8-8-8-8-7-7-7-7-|--- 
Eb-5-5-5-5--|-3-3-3-3--|-----------------|--- 
 
 
Repeat Chorus and then: 
 
Gb-----------------|--- 
Db-----------------|--- 
Ab-----------------|--- 
Eb-3--3--1--3--(3)-|--- 
 
 
 

	  

Full key step upFull key step up
Half key step upHalf key step up
Half key step downHalf key step down
Full key step downFull key step down
Search Paypal
auto scroll beats size up size down change color hide chords drawings
tab show chords e-chords YouTube Clip e-chords hide all tabs e-chords go to top tab