Hanazawa Kana

Recover Decoration

Hanazawa Kana

bass

by  TAMAMOREIRA

save to print version add songbook text version e-mail correct tuner
chordsukulelecavacokeyboardtabbassdrumsharmonicaflute Guitar Pro
close

there isn't a video lesson for this song

chords

Recover Decoration

	  		Intro(0:04) 

G|---------------------------------------------------------------------------| 
D|-13\4----------------------------------------------------------------------| 
A|-----------------6-----------4-----------6-----------4-----------6---------| 
E|-------4----4------6----6------4----4------6----6------4----4------6----6--| 

G|---------------------------------------------------------------------------| 
D|-----------8---6-----x 4---------------------------------------------------| 
A|-4---3/6-------------------2---3---5-5---4-4-------------------------------| 
E|---------------------------------------------------------------------------| 


verse 1(0:15) 

G|-6--------------------------------------------6---4------------------------| 
D|--3---4-----x-8---------------------------------------7--8----x-8----------| 
A|------------------6-----x-4---2-----x-3---4-------------------------8------| 
E|------------------------------------------------------------------------6--| 

G|---------------------------------------------------------------------------| 
D|-x-8---7---6----x-6---------------3---4-----x-8----------------------------| 
A|--------------------6-4-x-4---4-------------------6-----x-4---2------------| 
E|---------------------------------------------------------------------------| 

G|-------------------------------------8-------------------------------------| 
D|-----------------------8---8------8-----8--7--6-------6-----------4/11-----| 
A|-x-3---4-----2-----1-----8---6---------------------6-----6-5-4-------------| 
E|---------------------------------------------------------------------------| 


Bridge(0:32) 

G|---------------------------------------------------------------------------| 
D|---------7/11-----9-----8-------------------------------------6/13-12-11---| 
A|-----9----------------------8-------------------------5---6----------------| 
E|-7------------------------------6---5---4---x-5---6------------------------| 

G|---------------------------------------------------------------------------| 
D|------------------11---9--6-7-8-----8--7-----------------------7/9---------| 
A|-11-9-------7/9------------------8--------7------------------------9-------| 
E|------9-7-------------------------------------4-----6-----7----------7\1---| 


Chorus(0:50) 

G|-------------------------------------8-7-6-------------------1/8-x---------| 
D|------4-6-------------------3-4-5-6--------x-x--6-4-4---2---1-------x------| 
A|----6-----4---4-2-1---4-5-6---------6---------4-------4---2-----------x6---| 
E|x-4---------4-------1------------------------------------------------------| 

G|---3-4-5-6-5-4-----5-6-7-8-----------------------------11-10-9---8---------| 
D|-6-------------7-8---------8---------8-7-6---------7/9---------9---8--6----| 
A|-----------------------------6-----6-------6-9-6-7-------------------------| 
E|-------------------------------6-4-----------------------------------------| 

G|---------------------------------------------------------------------------| 
D|-----x-4-4---4-------------------------------------------------------------| 
A|-4---------4---------------------------------------------------------------| 
E|---------------------------------------------------------------------------| 


Outro(1:15) 

G|---------------------------------------------------------------------------| 
D|---------------------------------------------------------------------------| 
A|-----------------6-----------4-----------6-----------4-----------6---------| 
E|-13\4--4----4------6----6------4----4------6----6------4----4------6----6--| 

G|---------------------------------------------------------------------------| 
D|-----------8---6-----x-4---------------------------------------------------| 
A|-4---3/6-------------------2---3---5-5---4-4-------------------------------| 
E|------------------------------------------------------2--------------------| 


************************************ 
| x   Dead note 
| /   Slide up 
| \   Slide down 
************************************ 
		  

See also:

bass Deep Purple - Speed King bass Deep Purple - Into The Fire bass Deep Purple - Smoke On The Water bass Deep Purple - Fire Ball bass Deep Purple - Smoke On The Water (ver. 2) bass Deep Purple - Space Truckin'
e-chords

Other versions:

bass Hanazawa Kana - Recover Decoration
auto scroll beats size up size down change color hide chords drawings
tab show chords e-chords YouTube Clip e-chords hide all tabs e-chords go to top tab

share