Green Day

home > Green Day

Welcome To Paradise Bass Tab

Green Day

Difficulty: AdvancedAdvanced

tuner correct add songbook print version text version save to e-mail
chordsukulelecavacokeyboardtabbassdrummharmonicsflute Guitar Pro
chords

Welcome To Paradise

Year: 1992 - Album: Dookie

  		





 
 
Album: Dookie
Tabbed by: greendaypunk

this is a pretty tough but cool song to play on bass. the solo is the hardest thing
i've ever tabbed out.

INTRO:
   e e e e q   e e   e e e q   e e e   e e e e q   e     e e e e r e e e
G|-----------------|-----------------|-----------------|------------------|
D|-----7-----------|---7-------------|-----7-----------|---7--------------|
A|-5h7---7-7---7-0-|-5---------------|-5h7---7-7---7---|-5----------------|
E|-----------------|-----x-5---5-5-7-|-----------------|-----x-5---5-5-7--|

VERSE:
   q   q   e e e e   r e e q   e e e   q   e e q   e e   e e e e q   e e
G|-----------------|-----------------|-----------------|-----------------|
D|-----------------|---7-------------|-----7-------7---|-7---7-----------|
A|-7---7---7-7-0-5-|-----5-5---5-5-0-|-7-----7-7-----7-|---7---7-7---7---|
E|-----------------|-----------------|-----------------|---------------5-|

   q   e e s e s   e e e e e e e   q   q   e e r e   e e e e e q     q   e e  s q s
G|---------------|---------------|-----------------|----------------|---------------|
D|---------5-4---|-------4h5-4---|-----------------|----------------|---------5-4---|
A|-7---7-7-----5-|-5-5-5-------5-|-----------------|-----------10\-|-7---7-7------5-|
E|---------------|---------------|-3---3---3-5---7-|-7-7-7-7-7------|---------------|

   e e e e e e e   q   s e e q   e e   e e e e q   e e   q   e e s q s   e e e e e e e
G|---------------|-------------------|-----------------|---------------|--------------|
D|-------4-5-4---|-----7h9-------7---|-----7-----------|---------5-4---|-------4-5-4--|
A|-5-5-5-------5-|-7-------7-7-----7-|-7-7---7-7---7---|-7---7-7-----5-|-5-5-5-------5-|
E|---------------|-------------------|---------------5-|---------------|--------------|

   q   e e e q   e   e e e e e e e   q   q   e e e e   e e e e e e e   e e e e e e q
G|-----------------|---------------|-----------------|---------------|---------------|
D|-----------------|---------------|-----------------|---9-----9-----|-9-9-----------|
A|-----------------|---------------|-----------------|---------------|---------------|
E|-3---3-3-3-5---7-|-7-7-7-7-7-7-5-|-3---3---3-5-5-7-|-7---7-7---7-7-|-----7-7-7-7-7-|

CHORUS:
   q   q   e q   e   e e e e e e   q   q   e q   e   e e e e e e e   q   q   e q   e
G|-----------------|-------------|-----------------|---------------|-----------------|
D|-----------------|-------------|-----------------|---------------|-----------------|
A|-----------------|-------------|---------------3-|-3-3-3-3-5-5---|-----------------|
E|-0---0---0-0---3-|-3-3-3-3-3-0-|-5---5---5-5-----|-------------0-|-0---0---0-0---3-|

   e e e e e e   q   e e e e e e   e e e e e  e  q    q   e e e e r e   e e e e e e
G|-------------|-----------------|------------------|-----------------|-------------|
D|-------------|-----9-----9-9---|------------------|-----------9-----|-------------|
A|-------------|-----------------|-------9-9h10-9\-|-7---7-7-7-------|-------------|
E|-3-3-3-3-3-0-|-7-----7-7-----7-|-7-7-7------------|---------------3-|-3-3-3-3-3-5-|


G|-----------------|---5------------|*-----------------|
D|-----------------|----------------|*-----------------|
A|---------------3-|-3---3-3-5-5--0-|*-0-0-0-0-0-0-0-5-|
E|-5---5---5-5-----|----------------|*-----------------|

SOLO PART 1:
G|-----------------|---------------------|
D|-----9---------9-|--------9-------8h10-|
A|-7-7---7h10-10---|-10p9-9---9-8-8------|
E|-----------------|---------------------|

SOLO PART 2:                          x 6
G|-----------------|---------------------|
D|-----7h9-------9-|--------8-------8h10-|
A|-7-7-----10-10---|-10p9-9---9p8-8------|
E|-----------------|---------------------|

SOLO PART 3:
G|----------------------|--------------10p9-|--------------------|-------------|
D|-----7h9-------9------|---8-----8h10------|---7h9--------------|---8-------8-|
A|-7-7-----10-10---10p9-|-9---9p8-----------|-7-----10-10-9------|-9---9p8-8-8-|
E|----------------------|-------------------|---------------10h9-|-------------|

SOLO PART 4:
G|-----------------|---------------------|----------------------|--------------10p9-|
D|-----7h9-------9-|--------8-------8h10-|-----7h9-------9------|---8-----8h10------|
A|-7-7-----10-10---|-10p9-9---9p8-8------|-7-7-----10-10---10p9-|-9---9p8-----------|
E|-----------------|---------------------|----------------------|-------------------|

G|--------------------|----------------|
D|---7h9-------9------|---8-------8h10-|
A|-7-----10-10---10p9-|-9---9p8-8------|
E|--------------------|----------------|

SOLO PART 5:
G|----------------------|---------------|
D|-----7h9-------9------|---8-----------|
A|-7-7-----10-10---10p9-|-9---9-8-8-8-8-|wow. all of the solos are eighth notes.
E|----------------------|---------------|

ENDING 1:
   e e e e e e e s e   r  e e e e e e e
G|-------------------|----7---7----------|
D|-----7---------7h9-|------9---9-8-7----|
A|-5h7---7-7-7-7-----|----------------10-|
E|-------------------|-------------------|

ENDING 2:
   q 
G|-------|
D|-------|
A|-7\\-|
E|-------|


Song Order:
Intro        x 1     Intro        x 2    Solo Part 5  x 1
Verse        x 1     Solo Part 1  x 1    Verse        x 1
Chorus       x 1     Solo Part 2  x 1    Chorus       x 1
Intro        x 1     Solo Part 3  x 1    Ending 1     x 1
Verse        x 1     Solo Part 4  x 1    Intro        x 1
Chorus       x 1     Solo Part 2  x 1    Ending 2     x 1

	  

Search Paypal
auto scroll beats size up size down change color hide chords drawings
tab show chords e-chords YouTube Clip e-chords hide all tabs e-chords go to top tab