Grease

home > Grease

You're the one that I want Bass Tab

Grease

Difficulty: ExpertExpert

tuner correct add songbook print version text version save to e-mail
chordsukulelecavacokeyboardtabbassdrumsharmonicsflute Guitar Pro
chords

You're the one that I want

	  

	verse
G|--------------------------3-5-3----2-3-------------|
D|---7-5---7-5-2-3-3-335---3-----5-2----2-20--7-5----|
A|--7-7-7-7-7-----3-3---3-3------------------7-7-7---|
E|-5-----5---------------3------------------5--------|

	pre-chorus						(play twice)
G|-------5-3-----4-4-5-4-2-2-2-4-5-4-2------|--------5-3-----|
D|--3-5-5---5-2-5-------5-2-----------5-3-3-|-3-3-5-5---5-3--|
A|-3-------------------------------------3--|--3-----------3-|
E|------------------------------------------|----------------|

G|--3-5-3-5-3---3-5-3-5-3--|
D|-3-------5-3-3---------5-|
A|-------------------------|
E|-------------------------|

	chorus&outro
G|-----------3-5-5--------5-|--5-3-------------7-5--------------|
D|----3-3-5-5--------3-3-5--|-----5-3-5-5-3-------7-5-7-7-5-----|
A|-3-3------------3-3-------|--------------5-3-------------7-5--|
E|--------------------------|-3---------------3---------------5-|

	  

there isn't a video lesson for this song

request
Search
auto scroll beats size up size down change color hide chords drawings
tab show chords e-chords YouTube Clip e-chords hide all tabs e-chords go to top tab