Good Charlotte

home > Good Charlotte

Wondering (ver. 3) Bass Tab

Good Charlotte

Difficulty: nolevelnolevel

tuner correct add songbook print version text version save to e-mail
chordsukulelecavacokeyboardtabbassdrumsharmonicsflute Guitar Pro
chords

Wondering (ver. 3)

  		


---
tabbed by lefty55bbe

Standard tuning
IM PRETTY SURE ITS GOOD SO CHECK IT OUT AND RATE IT ITS IN STANDARD
TUNING TOO 
Fill:
G|------------------------------------|
D|------------------------------------|
A|-2-2-2-2----------------------------|(x2)
E|----------0-0-0-0--4-4-4-4--0-0-0-0-|

Verse/Chrous:
G|-------------------------------------|
D|-------------------------------------|
A|-2-2-2-2-----------------------------|
E|----------0-0-0-0--4-4-4-4--0-0--2-2-|

Pre-Chorus: "Cause everybody..."
G|-------------------------------------------------------------------|
D|-------------------------------------------------------------------|
A|------------------2-2-2-2-2-2-2-2----------------------------------|
E|-4-4-4-4-4-4-4-4-------------------0-0-0-0-0-0-0-0-0-0-0-0-0-0-0-0-|

Pre-Chorus Part 2: "And your somebody..."
G|-------------------------------------------------6-6-4-4-2-2-1-1-----|
D|----------------------------------1-1-1-1-1-1-1------------------1-1-|
A|-----------------2-2-2-2-2-2-2-2-------------------------------------|
E|-4-4-4-4-4-4-4-4-----------------------------------------------------|

Guitar solo: Play the verse/chorus

Bridge:"Dont tell me..."
G|--------------------------------------------------------|
D|--------------------------------------------------------|
A|--------------------------------------------------------|
E|-0-0--2-2--4-4-4-4-4-4-4-4----0-0--2-2--4-4-4-4-4-4-4-4-|

Then you end with....

G|----|
D|----|
A|----|
E|-6~-|

	  

Search Paypal
auto scroll beats size up size down change color hide chords drawings
tab show chords e-chords YouTube Clip e-chords hide all tabs e-chords go to top tab