Good Charlotte

home > Good Charlotte

Wondering (ver. 2) Bass Tab

Good Charlotte

Difficulty: nolevelnolevel

tuner correct add songbook print version text version save to e-mail
chordsukulelecavacokeyboardtabbassdrumsharmonicsflute Guitar Pro
chords

Wondering (ver. 2)

  		



Tabber-gooch182
this is 100% correct, im sure of it, the 1 that got 5 stars was way off
this is how its played

Guitar plays intro then...

Fill:
Gb|------------------------------------|
Db|------------------------------------|
Ab|-3-3-3-3----------------------------|(x2)
Eb|----------1-1-1-1--5-5-5-5--1-1-1-1-|

Verse/Chrous:"Since I was a Young man,..."
"If you want me to wait, I will wait for you..."
Gb|-------------------------------------|
Db|-------------------------------------|
Ab|-3-3-3-3-----------------------------|
Eb|----------1-1-1-1--5-5-5-5--1-1--3-3-|

Pre-Chorus: "Cause everybody, whoa, needs some one that they can trust in."
Gb|-------------------------------------------------------------------|
Db|-------------------------------------------------------------------|
Ab|------------------3-3-3-3-3-3-3-3----------------------------------|
Eb|-5-5-5-5-5-5-5-5-------------------1-1-1-1-1-1-1-1-1-1-1-1-1-1-1-1-|

Pre-Chorus Part 2: "And your somebody, whoa, that I found just in time."
Gb|---------------------------------------------------------------------|
Db|---------------------------------------------------------------------|
Ab|------------------3-3-3-3-3-3-3-3-------------------5-5-3-3-1-1------|
Eb|-5-5-5-5-5-5-5-5-------------------0-0-0-0-0-0-0-0---------------0-0-|

Guitar solo: Play the verse/chorus

Bridge:"Dont tell me..."
Gb|--------------------------------------------------------|
Db|--------------------------------------------------------|
Ab|--------------------------------------------------------|
Eb|-1-1--3-3--5-5-5-5-5-5-5-5----1-1--3-3--5-5-5-5-5-5-5-5-|

End on
Gb|----|
Db|----|
Ab|----|
Eb|-1~-|

	  

Search Paypal
auto scroll beats size up size down change color hide chords drawings
tab show chords e-chords YouTube Clip e-chords hide all tabs e-chords go to top tab