Good Charlotte

home > Good Charlotte

Time After Time Bass Tab

Good Charlotte

Difficulty: nolevelnolevel

tuner correct add songbook print version text version save to e-mail
chordsukulelecavacokeyboardtabbassdrumsharmonicsflute Guitar Pro
chords

Time After Time

  		


INTRO
G|----------------|----------------|----------------|----------------|
D|----------------|----------------|----------------|----------------|
A|3333330-0-------|3333530---------|3333330-0-------|3333530---------| 
E|----—--3-1111111|-------311111111|----—--3-1111111|-------311111111|

VERSE 1
G|----------------|----------------|----------------|----------------|
D|----------------|----------------|----------------|----------------|
A|3333330-0-------|3333530---------|3333330-0-------|3333530---------| 
E|----—--3-1111111|-------311111111|----—--3-1111111|-------311111111|

G|----------------|----------------|----------------|----------------|
D|----------------|----------------|----------------|----------------|
A|3333330-0-------|3333530---------|3333330-0-------|33333235--------|
E|----—--3-1111111|-------311111111|----—--3-1111111|--------33333333|

CHORUS INTRO
G|----------------|----------------|----------------|----------------|
D|----------------|----------------|----------------|----------------|
A|----------------|----------------|----------------|----------------|
E|-5-5-5-5-5-5-5-5|-3-3-3-3-3-3-3-3|-1-1-1-1-1-1-1-1|-1-1-1-1-1-1-1-1|

G|----------------|----------------|----------------|----------------|
D|----------------|----------------|----------------|----------------|
A|----------------|----------------|----------------|----------------|
E|-5-5-5-5-5-5-5-5|-3-3-3-3-3-3-3-3|-1-1-1-1-1-1-1-1|-1-1-1-1-1-1-1-1|

CHORUS
G|----------------|----------------|----------------|----------------|
D|----------------|----------------|----------------|----------------|
A|----------------|----------------|----------------|----------------| x4
E|-5-5-5-5-5-5-5-5|-3-3-3-3-3-3-3-3|-1-1-1-1-1-1-1-1|-1-1-1-1-1-1-1-1|

VERSE 2
G|----------------|----------------|----------------|----------------|
D|----------------|----------------|----------------|----------------|
A|3333330-0-------|3333530---------|3333330-0-------|3333530---------| 
E|----—--3-1111111|-------311111111|----—--3-1111111|-------311111111|

G|----------------|----------------|----------------|----------------|
D|----------------|----------------|----------------|----------------|
A|3333330-0-------|3333530---------|3333330-0-------|333333235-------|
E|----—--3-1111111|-------311111111|----—--3-1111111|---------3333333|


CHORUS INTRO
G|----------------|----------------|----------------|----------------|
D|----------------|----------------|----------------|----------------|
A|----------------|----------------|----------------|----------------|
E|-5-5-5-5-5-5-5-5|-3-3-3-3-3-3-3-3|-1-1-1-1-1-1-1-1|-1-1-1-1-1-1-1-1|

G|----------------|----------------|----------------|----------------|
D|----------------|----------------|----------------|----------------|
A|----------------|----------------|----------------|----------------|
E|-5-5-5-5-5-5-5-5|-3-3-3-3-3-3-3-3|-1-1-1-1-1-1-1-1|-1-1-1-1-1-1-1-1|

CHORUS
G|----------------|----------------|----------------|----------------|
D|----------------|----------------|----------------|----------------|
A|----------------|----------------|----------------|----------------| x2
E|-5-5-5-5-5-5-5-5|-3-3-3-3-3-3-3-3|-1-1-1-1-1-1-1-1|-1-1-1-1-1-1-1-1|

BRIDGE (hammer on every note)
G|----------------|----------------|----------------|----------------|
D|----------------|----------------|----------------|----------------|
A|----------------|----------------|----------------|----------------| x4
E|-5-5-5-5-5-5-5-5|-3-3-3-3-3-3-3-3|-1-1-1-1-1-1-1-1|-0-0-0-0-0-0-0-0|
  

G|----------------|
D|----------------|
A|----------------| x4
E|-1-1-1-1-1-1-1-1|


CHORUS
G|----------------|----------------|----------------|----------------|
D|----------------|----------------|----------------|----------------|
A|----------------|----------------|----------------|----------------| x3
E|-5-5-5-5-5-5-5-5|-3-3-3-3-3-3-3-3|-1-1-1-1-1-1-1-1|-1-1-1-1-1-1-1-1|

G|----------------|
D|----------------|	  *I’M NOT SURE ABOUT THIS BIT*
A|----------------| x2  
E|-1-1-1-1-1-1-1-1|

ENDING
G|----------------|----------------|----------------|----------------|
D|----------------|----------------|----------------|----------------|
A|3333330-0-------|3333530---------|3333330-0-------|3333530---------| 
E|----—--3-1111111|-------311111111|----—--3-1111111|-------311111111|

END NOTE
G|-----
D|-----  LET RING
A|-3---
E|-----

please tell me if you can see where i have gone wrong as this is my first ever tab, so it is a bit off :s

	  

Search Paypal
auto scroll beats size up size down change color hide chords drawings
tab show chords e-chords YouTube Clip e-chords hide all tabs e-chords go to top tab