Good Charlotte

home > Good Charlotte

The Young & The Hopeless (ver. 2) Bass Tab

Good Charlotte

Difficulty: nolevelnolevel

tuner correct add songbook print version text version save to e-mail
chordsukulelecavacokeyboardtabbassdrumsharmonicsflute Guitar Pro
chords

The Young & The Hopeless (ver. 2)

  		

********************************************************************
		YOUNG AND HOPELESS - 
********************************************************************
this is a great song with cool riffs in the pre-chorus
Paul loves to play his notes really high so he can slide down a lot,
in the chorus its got slides, live he did em, so i threw em in,
also, he ;oves haveing no tone on his bass when he palys
if u got ne improvments on the pre chrous please share i know its a bit off!

tuning(D A D G)
enjoy

YOU DONT COME IN UNTIL THE FIRST VERST
verse(palm muted/ but i just strum very lightly)
G|-----------------------------------------------------------------|
D|-----------------------------------------------------------------|
A|-------------333333333333----------------------------------------|
D|-111111111111------------6666666666666666666---------------------|

Pre chorusx2(its got a weird strumming pattern)
G|----------------------------------------------------------------|
D|------------------------------8-8-8-8---------------------------|
A|-333333/8\---------6/86-6-666-6-6-6-6--8p6----------------------|
D|----------66666-689-----------------------888888888-------------|

CHORUS
G|-------------------------------------------------------|
D|-------------------------------------------------------|
A|---------------------------------------66666666666-----|
D|-1~--10~/--6~-88888/1~--10~/--6~-88888-----------------|


VERSE AGAIN(x2)
PRE CHORUS (x2)

CHORUS
G|-------------------------------------------------------|
D|-------------------------------------------------------|
A|---------------------------------------3~--------------|
D|-1~--10~/--6~-88888/1~--10~/--6~-88888x----------------|

BREAK for a bit

x1
G|-----------------------------------------------------------------|
D|-----------------------------------------------------------------|
A|-----------33333-222222-------------333333-222222----------------|
D|-1-11111-11------------1-11111111111-------------111111111111101-|

LAst CHORUSx2
G|-----------------------------------------------------------------|
D|-----------------------------------------------------------------|
A|----------333333333----------------------------------------------|
D|-111111111---------66666666-888888888----------------------------|

OUTROx1
G|-----------------------------------------------------------------|
D|-----------------------------------------------------------------|
A|-66666---------------66666----------------6~---------------------|
D|------99999-111111111-----99999-111111111-----9~--1~-------------|

	  

Search Paypal
auto scroll beats size up size down change color hide chords drawings
tab show chords e-chords YouTube Clip e-chords hide all tabs e-chords go to top tab