Good Charlotte

home > Good Charlotte

The Young & The Hopeless (ver. 3) Bass Tab

Good Charlotte

Difficulty: nolevelnolevel

tuner correct add songbook print version text version save to e-mail
chordsukulelecavacokeyboardtabbassdrumsharmonicsflute Guitar Pro
chords

The Young & The Hopeless (ver. 3)

  		

Band:
The Young & The Hopeless
Album: The Young & The Hopeless
Tabber: NewTabberMe - [email protected]
This is my first tab, hope you like it, please rate.

Verse:
G|------------------------------------------------------------------|
D|------------------------------------------------------------------|
A|------------------------------------------------------------------|
E|-----------------888888888888888844444444444444444444444444444444-|
B|-4444444444444444-------------------------------------------------|


Pre-chorus:
G|---------------------------|----------------------------------|
D|---------------------------|---------------------888866665555-|
A|----------------10-8-------|-------------88886666-------------|
E|--8-8888888-8888----11-10--|-444466668888---------------------|
B|---------------------------|----------------------------------|

G|------------------|
D|------------------|
A|------------------|
E|-6666666666666666-| X2
B|------------------|


Chorus:
G|-----------------|-----------------|-----------------|
D|-----------------|-----------------|----6--------6---|
A|-6--6--6-6-6---6-|-3--3--3-3-3---3-|-----------------|
E|-----------------|-----------------|-4-----4-4-4---4-| 
B|-------------4---|-------------1---|-----------------|

G|-----------------------------|
D|-----------------------------|
A|-----------------------------|
E|-6666666666666666-44444444-4-|
B|-----------------------------|


Verse 2:
G|-------------------------------------------------------------------|
D|-------------------------------------------------------------------|
A|-------------------------------------------------------------------|
E|------------------888888888888888844444444444444444444444444444444-| X2
B|-4444444444444444--------------------------------------------------|


Pre-Chorus:
G|---------------------------|-----------------------------------|
D|---------------------------|----------------------888866665555-|
A|----------------10-8-------|-------------88886666--------------|
E|--8-8888888-8888----11-10--|-444466668888----------------------|
B|---------------------------|-----------------------------------|

G|------------------|
D|------------------|
A|------------------|
E|-6666666666666666-| X2
B|------------------|


Chorus:
G|-----------------|-----------------|-----------------|
D|-----------------|-----------------|----6--------6---|
A|-6--6--6-6-6---6-|-3--3--3-3-3---3-|-----------------|
E|-----------------|-----------------|-4-----4-4-4---4-| 
B|-------------4---|-------------1---|-----------------|

G|-----------------------------|
D|-----------------------------|
A|-----------------------------|
E|-6666666666666666-44444444-4-|
B|-----------------------------|


Bridge: (First Guitar)
G|---------------------------------------------------|
D|---------------------------------------------------|
A|---------------------------------------------------|
E|------------------88888888777777-------------------|
B|-4-4444444-444444----------------44444444444444444-|

G|----------------------------------|
D|----------------------------------|
A|----------------------------------|
E|-88888888777777766666666666666666-|
B|----------------------------------|


Chorus:
G|------------------------------------------------------------------|
D|------------------------------------------------------------------|
A|-66666666666666663333333333333333---------------------------------|
E|---------------------------------44444444444444446666666666666666-| X2
B|------------------------------------------------------------------|


Outro:
G|-----------------------------------------------------------------|---------|
D|-----------------------------------------------------------------|---------|
A|-3333333333333333----------------3333333333333333----------------|-3/11----|
E|-----------------------------------------------------------------|---------|
B|-----------------4444444444444444----------------4444444444444444|------4~-|

	  

Search Paypal
auto scroll beats size up size down change color hide chords drawings
tab show chords e-chords YouTube Clip e-chords hide all tabs e-chords go to top tab