Good Charlotte

home > Good Charlotte

The Young & The Hopeless (ver. 2) Bass Tab

Good Charlotte

Difficulty: BeginnerBeginner

tuner correct add songbook print version text version save to e-mail
chordsukulelecavacokeyboardtabbassdrumsharmonicsflute Guitar Pro
chords

The Young & The Hopeless (ver. 2)

  		

Band: 
 The Young And The Hopeless
Album: The Young And The Hopeless
Bassist: Paul Thomas
Tuning: Standard 5 string (B E A D G)
Tabber: -=* Kevvy *=-

This song is actually played on a 5string bass. Like all the others. Non of the tabs I've seen I've liked, No offence lads (an ladies if you made one)
I really wanted to play the lil fill Paul does. Being as there are some 5 string bassists out there, not wanting to play on 4 string. I thought I'd tab it.
=)
Use a pick, play by the bridge.
G|---------------------------------------------------------------------------------------------------------------------------------|
D|---------------------------------------------------------------------------------------------------------------------------------|
A|---------------------------------------------------------------------------------------------------------------------------------|
E|---------------------------------8-8-8-8-8-8-8-8-8-8-8-8-8-8-8-8-4-4-4-4-4-4-4-4-4-4-4-4-4-4-4-4-4-4-4-4-4-4-4-4-4-4-4-4-4-4-4-4-|
B|-4-4-4-4-4-4-4-4-4-4-4-4-4-4-4-4-------------------------------------------------------------------------------------------------|

G|-----------------------------------------------------------------------------------------------------------------------------------|
D|---------------------------------------------------------------------------8-8-8-8-6-6-6-6-5-5-5-5---------------------------------|
A|------------------------10-8-------------------------------8-8-8-8-6-6-6-6---------------------------------------------------------|
E|-8--8-8-8-8-8-8-8-8-8-8------11-10-4-4-4-4-6-6-6-6-8-8-8-8-----------------------------------------6-6-6-6-6-6-6-6-6-6-6-6-6-6-6-6-|X2
B|-----------------------------------------------------------------------------------------------------------------------------------|

G|--------------------------------------------------------------------------------|
D|------------------------------------------6-------------------------------------|
A|-6--6--6-6-6----6--3--3--3--3-3-----3-------------------------------------------|
E|---------------------------------------4-----4--6-6-6-6-6-6-6-6-6-6-6-6-6-6-6-6-| X 2
B|--------------4------------------1----------------------------------------------|

G|--------------------|
D|--------------------|
A|--------------------|
E|-4-4-4-4-4-4-4-4-4~-|
B|--------------------|

G|---------------------------------------------------------------------------------------------------------------------------------|
D|---------------------------------------------------------------------------------------------------------------------------------|
A|---------------------------------------------------------------------------------------------------------------------------------|
E|---------------------------------8-8-8-8-8-8-8-8-8-8-8-8-8-8-8-8-4-4-4-4-4-4-4-4-4-4-4-4-4-4-4-4-4-4-4-4-4-4-4-4-4-4-4-4-4-4-4-4-|
B|-4-4-4-4-4-4-4-4-4-4-4-4-4-4-4-4-------------------------------------------------------------------------------------------------|

G|-----------------------------------------------------------------------------------------------------------------------------------|
D|---------------------------------------------------------------------------8-8-8-8-6-6-6-6-5-5-5-5---------------------------------|
A|------------------------10-8-------------------------------8-8-8-8-6-6-6-6---------------------------------------------------------|
E|-8--8-8-8-8-8-8-8-8-8-8------11-10-4-4-4-4-6-6-6-6-8-8-8-8-----------------------------------------6-6-6-6-6-6-6-6-6-6-6-6-6-6-6-6-|X2
B|-----------------------------------------------------------------------------------------------------------------------------------|

G|--------------------------------------------------------------------------------|
D|------------------------------------------6-------------------------------------|
A|-6--6--6-6-6----6--3--3--3--3-3-----3-------------------------------------------|
E|---------------------------------------4-----4--6-6-6-6-6-6-6-6-6-6-6-6-6-6-6-6-| X 2
B|--------------4------------------1----------------------------------------------|

G|---------------------------------------------------------------------------------------------------------------------------------------------------------------|
D|---------------------------------------------------------------------------------------------------------------------------------------------------------------|
A|---------------------------------------------------------------------------------------------------------------------------------------------------------------|
E|----------------------------------8-8-8-8-8-8-8-8-7-7-7-7-7-7---------------------------------8-8-8-8-8-8-8-8-7-7-7-7-7-7-6-6-6-6-6-6-6-6-6-6-6-6-6-6-6-6-6-6-6|
B|-4--4--4--4-4-4-4-4--4-4--4-4-4-4-----------------------------4-4-4-4-4-4-4-4-4-4-4-4-4-4-4-4------------------------------------------------------------------|

G|---------------------------------------------------------------------------------------------------------------------------------|
D|---------------------------------------------------------------------------------------------------------------------------------|
A|-6-6-6-6-6-6-6-6-6-6-6-6-6-6-6-6-3-3-3-3-3-3-3-3-3-3-3-3-3-3-3-3-----------------------------------------------------------------|
E|-----------------------------------------------------------------4-4-4-4-4-4-4-4-4-4-4-4-4-4-4-4-6-6-6-6-6-6-6-6-6-6-6-6-6-6-6-6-| x2
B|---------------------------------------------------------------------------------------------------------------------------------|

G|---------------------------------------------------------------------------------------------------------------------------------|
D|---------------------------------------------------------------------------------------------------------------------------------|
A|-3-3-3-3-3-3-3-3-3-3-3-3-3-3-3-3---------------------------------3-3-3-3-3-3-3-3-3-3-3-3-3-3-3-3---------------------------------|
E|---------------------------------------------------------------------------------------------------------------------------------|
B|---------------------------------4-4-4-4-4-4-4-4-4-4-4-4-4-4-4-4---------------------------------4-4-4-4-4-4-4-4-4-4-4-4-4-4-4-4-|

G|----------|
D|----------|
A|-3-/11----|
E|----------|
B|--------4-|

If there is something wrong on here. Which I'm sure there is, don't nick this and make a whole new tab. Just correct it. =)

	  

Search Paypal
auto scroll beats size up size down change color hide chords drawings
tab show chords e-chords YouTube Clip e-chords hide all tabs e-chords go to top tab