Good Charlotte

home > Good Charlotte

The Young & The Hopeless Bass Tab

Good Charlotte

Difficulty: ExpertExpert

tuner correct add songbook print version text version save to e-mail
chordsukulelecavacokeyboardtabbassdrumsharmonicsflute Guitar Pro
chords

The Young & The Hopeless

  		

-The young and the hopeless
Tab by nofxboy9

Verse
G|---------------------------------------------------
D|---------------------------------------------------
A|---------------------333333333333------------------
E|--000000000000---------------------444444444444----

Pre chorus
G|-------------------------------------------------------------------
D|------------------------------------8-8-8-8------------------------
A|-333333/8\--------------6/86-6-666--6-6-6-6--8p6-------------------
E|-------------44444--467------------------------------6666666666----
	
Chorus
G|--------------------------------------------------------------------
D|--------------------------------------------------------------------
A|---------------------333333333333-----------------------------------
E|--000000000000---------------------444444444444--666666666666-------

Verse
G|---------------------------------------------------
D|---------------------------------------------------
A|---------------------333333333333------------------
E|--000000000000---------------------444444444444----

Pre chorus
G|--------------------------------------------------------------------
D|------------------------------------8-8-8-8-------------------------
A|-333333/8\--------------6/86-6-666--6-6-6-6--8p6--------------------
E|-------------44444--467------------------------------6666666666-----

Chorus
G|-------------------------------------------------------------------
D|-------------------------------------------------------------------
A|---------------------333333333333----------------------------------
E|--000000000000---------------------444444444444--666666666666------

Bridge
G|----------------------------------------------------------------------
D|----------------------------------------------------------------------
A|-------------33333-222222--------------333333-222222------------------
E|-00000000------------------000000000--------------------0000000000000

Chorus
G|-----------------------------------------------------------------
D|-----------------------------------------------------------------
A|---------------------333333333333--------------------------------
E|--000000000000---------------------444444444444--666666666666----

Outro
G|--------------------------------------------------------------------
D|--------------------------------------------------------------------
A|-66666---------------------66666-------------------------6----------
E|---------77777-00000000---------77777-000000000-----7--0------------


Question comments or suggestion please e-mail me at [email protected]
Please rate this tab

	  

Search Paypal
auto scroll beats size up size down change color hide chords drawings
tab show chords e-chords YouTube Clip e-chords hide all tabs e-chords go to top tab