Good Charlotte

home > Good Charlotte

The Story Of My Old Man (ver. 3) Bass Tab

Good Charlotte

Difficulty: nolevelnolevel

tuner correct add songbook print version text version save to e-mail
chordsukulelecavacokeyboardtabbassdrumsharmonicsflute Guitar Pro
chords

The Story Of My Old Man (ver. 3)

  		

Band: 
 
Tabbed By: Brian

Verse
G|---------------------------------------------------------------------------
D|---------------------------------------------------------------------------
A|-3-3-3-3-3-3-3-3--------------------------------------------------------
E|---------------------1-1-1-1-3-3-3-3------------------------------------

Chorus
G|---------------------------------------------------------------------------
D|---------------------------------------------------------------------------
A|---------------------------------------------------------------------------
E|-5-5-5-5-3-3-3-3-1-1-1-1-1-1-1-1-1----------------------------------

Post Chorus
G|---------------------------------------------------------------------------
D|---------------------------------------------------------------------------
A|-3/9\5--------------------------------------------------------------------
E|---------------------------------------------------------------------------


Yeah…This is how they played it at Warped Tour.  Email with any questions.

	  

Search Paypal
auto scroll beats size up size down change color hide chords drawings
tab show chords e-chords YouTube Clip e-chords hide all tabs e-chords go to top tab