Good Charlotte

home > Good Charlotte

The Story Of My Old Man Bass Tab

Good Charlotte

Difficulty: nolevelnolevel

tuner correct add songbook print version text version save to e-mail
chordsukulelecavacokeyboardtabbassdrumsharmonicsflute Guitar Pro
chords

The Story Of My Old Man

  		



    Verse
G|----------------------------------------------------
D|---------------------------------------------------- x4
A|----------------------------------------------------
E|-3-3-3-3--5-5-5-5-5--7-7-7-7-7-7-7-7----------------
    Chorus
G|--------------------------------------------------
D|-------------------------------------------------- x3
A|--------------------------------------------------
E|-6-6-6-6--4-4-4-4-4--2-2-2-2-2-2-2-2--------------
    End Chorus
G|--------------------------------------------------------------
D|--------------------------------------------------------------
A|-----------5-5-5-5-5-5-5-5------------------------------------
E|6-6-6-6-----------------------2-2-2-2-2-2-2-2-2-2-2-2-2-2-2-2-
    Bridge
G|-------------    |-After 2nd Time
D|------------- x4 |------------------
A|-------------    |-----------------
E|-5/7\3-------    |-5-7-5-----------
    End
G|-----------------------------------
D|-----------------------------------
A|-----------------------------------
E|-5-5-5-5--7-7-7-7--3-3-3-3-3-3-3-3-

  hope it helps some 1.  please rate.  thanx

	  

Search Paypal
auto scroll beats size up size down change color hide chords drawings
tab show chords e-chords YouTube Clip e-chords hide all tabs e-chords go to top tab