Good Charlotte

home > Good Charlotte

The Click (ver. 3) Bass Tab

Good Charlotte

Difficulty: nolevelnolevel

tuner correct add songbook print version text version save to e-mail
chordsukulelecavacokeyboardtabbassdrumsharmonicsflute Guitar Pro
chords

The Click (ver. 3)

  		


********************************
*   -   *
********************************
Tabbed by PunkStyle21.

Here it is, 100% correct. Standard tuning. Enjoy.

   Intro 
G| ---------------------------------------------------------------------------------
D| ---------------------------------------------------------------------------------
A| -5~~~~~-----------------5~~~~~---------------------------------------------------
E| --------5~~~~~-3~~~~~----------5~~~~~-3~~~~~-------------------------------------

G| ---------------------------------------------------------------------------------
D| ---------------------------------------------------------------------------------
A| 5-5-5-5-5--------------------------------5-5-5-5-5-------------------------------
E| ----------5-5-5-5-5--3-3-3-3-3-3-3-3-3-3-----------5-5-5-5-5--3-3-3-3-3-7777-3333

   Verse #1 
G| ---------------------------------------------------------------------------------
D| ---------------------------------------------------------------------------------
A| 5-5-5-5-5-5-5-5------------------------------------------------------------------
E| ----------------5-5-5-5-5-5-5-5--3-3-3-3-3-3-3-3-3-3-3-3-3-3-3-3-----------------

   Chorus 
G| ---------------------------------------------------------------------------------
D| ---------------------------------------------------------------------------------
A| 5-5-5-5-5------------------------------------------------------------------------
E| ----------5-5-5-5-5--7-7-7-7-7--3-3-3-3-3----------------------------------------

G| ---------------------------------------------------------------------------------
D| ---------------------------------------------------------------------------------
A| 5-5-5-5-5------------------------------------------------------------------------
E| ----------5-5-5-5-5--33-3--33-3--33-3--33-3--------------------------------------

   Trans. to Verse #2 
G| ---------------------------------------------------------------------------------
D| ---------------------------------------------------------------------------------
A| 5-5-5-5-5--------------------------------5-5-5-5-5-------------------------------
E| ----------5-5-5-5-5--3-3-3-3-3-3-3-3-3-3-----------5-5-5-5-5--3-3-3-3-3-7777-3333

   Verse #2 
G| ---------------------------------------------------------------------------------
D| ---------------------------------------------------------------------------------
A| 5-5-5-5-5------------------------------------------------------------------------
E| ----------5-5-5-5-5--7-7-7-7-7--3-3-3-3-3----------------------------------------

   Bridge - 1st part 
G| ---------------------------------------------------------------------------------
D| ---------------------------------------------------------------------------------
A| 5~~~~~~-----------------5~~~~~~--------------------------------------------------
E| --------5~~~~~~-3~~~~~~---------5~~~~~~-3~~~~~~---33-3--33-3--33-3--33-3---------

   Bridge - 2nd part 
G| ---------------------------------------------------------------------------------
D| ---------------------------------------------------------------------------------
A| 5-5-5-5-5------------------------------------------------------------------------
E| ----------5-5-5-5-5--3-3-3-3-3-3-3-3-3-3-----------------------------------------

   Additional Riff
G| ---------------------------------------------------------------------------------
D| ---------------------------------------------------------------------------------
A| 5-5------------------------------------------------------------------------------
E| --------5-5-----7-7-----3-3------------------------------------------------------

G| ---------------------------------------------------------------------------------
D| ---------------------------------------------------------------------------------
A| 5-5------------------------------------------------------------------------------
E| --------5-5-----3-3-3-3-3-3-3-3-3-3-3-3-3-3-3-3----------------------------------

   Outro
G| ---------------------------------------------------------------------------------
D| ---------------------------------------------------------------------------------
A| 5~~~~~~--------------------------------------------------------------------------
E| --------5~~~~~~-3~~~~~~----------------------------------------------------------

****************
*  Song Order  *
****************
Intro - 1x
Verse #1 - 4x
Chorus - 2x
Trans. to Verse #2 - 1x
Verse #2 - 2x
Chorus - 2x
Bridge (1st part) - 1x
Bridge (2nd part) - 2x
Additional Riff - 2x
Outro - 1x

	  

Search Paypal
auto scroll beats size up size down change color hide chords drawings
tab show chords e-chords YouTube Clip e-chords hide all tabs e-chords go to top tab