Good Charlotte

home > Good Charlotte

The Click Good Bass Tab

Good Charlotte

Difficulty: nolevelnolevel

tuner correct add songbook print version text version save to e-mail
chordsukulelecavacokeyboardtabbassdrumsharmonicsflute Guitar Pro
chords

The Click Good

  		

Band: 
 The Click
Tabbed by: Joy2k

Ok well that’s a great song, very easy to play. Enjoy! 
This tab is probably 99.9% good.

G|---------------------------------------------------------------------------|
D|---------------------------------------------------------------------------|
A|5------------------------5-------------------------------------------------|
E|---------5-------3----------------5-----------3-3-3-3-3-3-3-3--------------|

G|---------------------------------------------------------------------------|
D|---------------------------------------------------------------------------|X6
A|5-5-5-5-5-5-5-5------------------------------------------------------------|
E|----------------5-5-5-5-5-5-5-5--3-3-3-3-3-3-3-3-3-3-3-3-3-3-3-3-----------|

Chorus 
G|---------------------------------------------------------------------------|
D|---------------------------------------------------------------------------|
A|5-5-5-5-5-5-5-5------------------------------------------------------------|
E|----------------5-5-5-5-5-5-5-5-7-7-7-7-7-7-7-7-3-3-3-3-3-3-3-3------------|

G|---------------------------------------------------------------------------|
D|---------------------------------------------------------------------------|
A|5-5-5-5-5-5-5-5------------------------------------------------------------|
E|----------------5-5-5-5-5-5-5-5---3-3-3---3-3-3—--3-3-3---3-3-3------------|

G|---------------------------------------------------------------------------|
D|---------------------------------------------------------------------------|
A|5-5-5-5-5-5-5-5------------------------------------------------------------|
E|----------------5-5-5-5-5-5-5-5-7-7-7-7-7-7-7-7-3-3-3-3-3-3-3-3------------|

G|---------------------------------------------------------------------------|
D|---------------------------------------------------------------------------|
A|5-5-5-5-5-5-5-5------------------------------------------------------------|
E|----------------5-5-5-5-5-5-5-5---3-3-3---3-3-3—--3-3-3---3-3-3------------|

G|---------------------------------------------------------------------------|
D|---------------------------------------------------------------------------|X2
A|5-5-5-5-5-5-5-5------------------------------------------------------------|
E|----------------5-5-5-5-5-5-5-5--3-3-3-3-3-3-3-3-3-3-3-3-3-3-3-3-----------|
  
G|---------------------------------------------------------------------------|
D|---------------------------------------------------------------------------|
A|5-5-5-5-5-5-5-5------------------------------------------------------------|x4
E|----------------5-5-5-5-5-5-5-5-7-7-7-7-7-7-7-7-3-3-3-3-3-3-3-3------------|

Chorus 
G|---------------------------------------------------------------------------|
D|---------------------------------------------------------------------------|
A|5-5-5-5-5-5-5-5------------------------------------------------------------|
E|----------------5-5-5-5-5-5-5-5-7-7-7-7-7-7-7-7-3-3-3-3-3-3-3-3------------|

G|---------------------------------------------------------------------------|
D|---------------------------------------------------------------------------|
A|5-5-5-5-5-5-5-5------------------------------------------------------------|
E|----------------5-5-5-5-5-5-5-5---3-3-3---3-3-3—--3-3-3---3-3-3------------|

G|---------------------------------------------------------------------------|
D|---------------------------------------------------------------------------|
A|5-5-5-5-5-5-5-5------------------------------------------------------------|
E|----------------5-5-5-5-5-5-5-5-7-7-7-7-7-7-7-7-3-3-3-3-3-3-3-3------------|

G|---------------------------------------------------------------------------|
D|---------------------------------------------------------------------------|
A|5-5-5-5-5-5-5-5------------------------------------------------------------|
E|----------------5-5-5-5-5-5-5-5---3-3-3---3-3-3—--3-3-3---3-3-3------------|

Sheeee saiid shee'd call....
G|---------------------------------------------------------------------------|
D|-------------------------------------------------------------5-5-5-5-5-5-5-|
A|5~~~~~~~----------------------5--------------------------------------------|
E|---------5~~~~~~~-3~~~~~~~-----~~~~~~~-5~~~~~~~-3~3~3~3~3~3----------------|

SHeeeeeeeeee woooooontttttt
G|---------------------------------------------------------------------------|
D|-----------------7-7-7-7-7-7-7-7--5-5-5-5-5-5-5-5-5-5-5-5------------------|
A|5-5-5-5-5-5-5-5------------------------------------------------------------|x2
E|---------------------------------------------------------------------------|

You go out on friday night....
G|---------------------------------------------------------------------------|
D|---------------------------------------------------------------------------|
A|5-5------------------------------------------------------------------------|
E|-------------5-5-----------7-7------3-3------------------------------------|

G|---------------------------------------------------------------------------|
D|-----------5-5-5-5-5-5-5-5-5-5-5-5-5-5-5-5---------------------------------|
A|5-5------------------------------------------------------------------------|
E|----5-5--------------------------------------------------------------------|

G|---------------------------------------------------------------------------|
D|--------------------------------------------------------5-5-5-5-5-5-5-5-5--|
A|5-5--------------------------------------5-5-------------------------------|
E|-------------5-5-----------7-7------3-3-----------5-5----------------------|

G|---------------------------------------------------------------------------|
D|---------------------------------------------------------------------------|X2
A|5-5-5-5-5-5-5-5------------------------------------------------------------|
E|----------------5-5-5-5-5-5-5-5--3-3-3-3-3-3-3-3-3-3-3-3-3-3-3-3-----------|

G|---------------------------------------------------------------------------|
D|-----------------7-7-7-7-7-7-7-7--5-5-5-5-5-5-5-5-5-5-5-5------------------|
A|5-5-5-5-5-5-5-5------------------------------------------------------------|x2
E|---------------------------------------------------------------------------|

G|---------------------------------------------------------------------------|
D|--------7----------5-------------------------------------------------------|
A|5--------------------------------------------------------------------------|
E|---------------------------------------------------------------------------|

Check out my other tabs under names Joy2k or Joy2k3.

Peace

	  

Search Paypal
auto scroll beats size up size down change color hide chords drawings
tab show chords e-chords YouTube Clip e-chords hide all tabs e-chords go to top tab