Good Charlotte

home > Good Charlotte

Screamer (ver. 2) Bass Tab

Good Charlotte

Difficulty: nolevelnolevel

tuner correct add songbook print version text version save to e-mail
chordsukulelecavacokeyboardtabbassdrumsharmonicsflute Guitar Pro
chords

Screamer (ver. 2)

  		

-
Standard Tuning
Tabbed By: GCaddict

Intro (0:11)
G | -----------------------------------------------
D | -----------------------------------------------
A | ----------------------------------------------- 1x
E | ------5 \ 0-------------------------------------

G | -------------------------------------------------
D | -------------------------------------------------
A | ----------22-----00--------2222---------------- 2x
E | ---00---------------------------------------------

Verse 1 (0:21)
G | -------------------------------------------------
D | -------------------------------------------------
A | ----------22-----00--------2222---------------- 4x
E | ---00---------------------------------------------

(0:40)
G | -------------------------------------------------
D | -------------------------------------------------
A | ----00------22-----00--------2222------------- 2x
E | --------------------------------------------------

(0:49)
G | -------------------------------------------------
D | -------------------------------------------------
A | ------------2222-----0000--------2222--------1x
E | ---0000------------------------------------------

Chrous (0:54)
G | -------------------------------------------------
D | -------------------------------------------------
A | ------------2222-----0000--------2222--------6x
E | ---0000------------------------------------------


Verse 2 (1:22)
G | -------------------------------------------------
D | -------------------------------------------------
A | ----------22-----00--------2222---------------- 4x
E | ---00---------------------------------------------

(1:36)
G | -------------------------------------------------
D | -------------------------------------------------
A | ----00------22-----00--------2222------------- 2x
E | --------------------------------------------------

(1:46)
G | -------------------------------------------------
D | -------------------------------------------------
A | ------------2222-----0000--------2222--------2x
E | ---0000------------------------------------------

Chorus (1:55)
G | -------------------------------------------------
D | -------------------------------------------------
A | ------------2222-----0000--------2222--------6x
E | ---0000------------------------------------------

Bridge 1 (2:23)
G | --------------------------------------------------
D | -------------------------------------------------
A | -----00000000---------22222222---------------3x
E | --------------------------------------------------

(2:35)
G | --------------------------------------------------
D | -------------------------------------------------
A | -----00000000---------2222222222222222----1x
E | --------------------------------------------------

Bridge 2 (2:40)
G | -------------------------------------------------
D | -------------------------------------------------
A | ------------22x22-----0000--------22x22--------4x
E | ---0000------------------------------------------

(2:59)
G | -------------------------------------------------
D | -------------------------------------------------
A | ------------2222-----0000--------2222--------4x
E | ---0000------------------------------------------

On 4th time (3:12)
G | -----------------------------------------------------------
D | -----------------------------------------------------------
A | -------------------------2222222222222222------------
E | -----------------------------------------------------------

End (3:17)
G | -----------------------------------------------------------
D | -----------------------------------------------------------
A | -----------------------------------------------------------
E | ---0--------------------------------------------------------

	  

Search Paypal
auto scroll beats size up size down change color hide chords drawings
tab show chords e-chords YouTube Clip e-chords hide all tabs e-chords go to top tab