Good Charlotte

home > Good Charlotte

Screamer Bass Tab

Good Charlotte

Difficulty: nolevelnolevel

tuner correct add songbook print version text version save to e-mail
chordsukulelecavacokeyboardtabbassdrummharmonicsflute Guitar Pro
chords

Screamer

  		

Band: 
 
Tabber: Chris(Canadianpunk67)


\ = slide up 
) = let ring 

Intro 
G|------------------------------------|
D|------------------------------------|
A|------------------------------------|
E|--5\0-------------------------------| 

Riff 1 
G|------------------------------------|
D|------------------------------------|
A|-----22-00--2222--------------------| 
E|--00--------------------------------| 

Riff 2 
G|------------------------------------|
D|------------------------------------|
A|--00-22-00-2222---------------------| 
E|------------------------------------| 

Riff 3 
G|------------------------------------|
D|------------------------------------|
A|-------2222-0000-2222---------------| 
E|--0000------------------------------| 

Riff 4 
G|------------------------------------|
D|------------------------------------|
A|--00000000-22222222-----------------| 
E|------------------------------------| 

Riff 5 
G|------------------------------------|
D|------------------------------------|
A|--00000000-2222222222222222---------| 
E|------------------------------------| 

Riff 6 
G|------------------------------------|
D|------------------------------------|
A|-------222-0000-222-----------------| 
E|--0000------------------------------| 

Riff 7 
G|------------------------------------|
D|------------------------------------|
A|-------0000-------------------------| 
E|--0000------------------------------| 

Riff 8 
G|------------------------------------|
D|------------------------------------|
A|-------2222-0000-2222222222222222---| 
E|--0000------------------------------| 

End 
G|------------------------------------|
D|------------------------------------|
A|------------------------------------|
E|--0)--------------------------------| 

ORDER 

Intro 1X 
Riff 1 6X  
Riff 2 2X  
Riff 1 1X  
Riff 3 6X 
Riff 1 3X  
Riff 2 2X  
Riff 3 8X  
Riff 4 1X  
Riff 5 1X  
Riff 6 2X  
Riff 7 2X  
Riff 3 2X 
Riff 8 1X  
End 1X

	  

Search Paypal
auto scroll beats size up size down change color hide chords drawings
tab show chords e-chords YouTube Clip e-chords hide all tabs e-chords go to top tab