Good Charlotte

home > Good Charlotte

Say Anything (ver. 2) Bass Tab

Good Charlotte

Difficulty: nolevelnolevel

tuner correct add songbook print version text version save to e-mail
chordsukulelecavacokeyboardtabbassdrumsharmonicsflute Guitar Pro
chords

Say Anything (ver. 2)

  		

*******************************************************************
I saw one on here that was a correction of another one, but it was 
wrong, so i made a right one. My brother helped me on it, so I know it is right. It has stuff from the old one cause some parts were right, but there are changes I made this for you people.
*******************************************************************

Intro
----------------------------------------
----------------------------------------
-14-14-12-9-12-7777--14-14-16-9-12-7777-   4x
----------------------------------------

Verse
-----------------------------------
-----------------------------------
-----------------------------------   2x
-7-7-5-2-5-00000-7-7-9-7-2-5-00000-

Pre-Chorus
-----------------------------------------
-----------------------------------------
-----------------------------------------   2x   
-4-4-4-4-4-2-2-2-2-2-0-0-0-0-0-0-0-0-0-0-

Chorus
------------------------------------------
------------------------------------------
-2-2-2-2-2--------------------------------   2x
----------2-2-2-2-2-0-0-0-0-0-0-0-0-0-0-0-

Verse
-----------------------------------
-----------------------------------
-----------------------------------   4x
-7-7-5-2-5-00000-7-7-9-7-2-5-00000-

Pre-Chorus
-----------------------------------------
-----------------------------------------
-----------------------------------------   2x
-4-4-4-4-4-2-2-2-2-2-0-0-0-0-0-0-0-0-0-0-

Chorus
------------------------------------------
------------------------------------------
-2-2-2-2-2--------------------------------   2x
----------2-2-2-2-2-0-0-0-0-0-0-0-0-0-0-0-

After-Chorus
-44-33-11-------------------
----------44-22-1-0---------
--------------------7-9-7-0-
----------------------------

Bridge
------------------------------------
------------------------------------
------------------------------------   2x
-44444444-22222222-0000000000000000-

------------------------------------
------------------------------------
------------------------------------
-55555555-77777777-9999999999999999-

Chorus
------------------------------------------
------------------------------------------
-2-2-2-2-2--------------------------------   4x   
----------2-2-2-2-2-0-0-0-0-0-0-0-0-0-0-0-

After-Chorus
-44-33-11-------------------
----------44-22-1-0---------
--------------------7-9-7-0-
----------------------------

That's it. If there are any corrections, e-mail me at [email protected] Thank You!!

	  

Search Paypal
auto scroll beats size up size down change color hide chords drawings
tab show chords e-chords YouTube Clip e-chords hide all tabs e-chords go to top tab