Good Charlotte

home > Good Charlotte

Say Anything Bass Tab

Good Charlotte

Difficulty: nolevelnolevel

tuner correct add songbook print version text version save to e-mail
chordsukulelecavacokeyboardtabbassdrumsharmonicsflute Guitar Pro
chords

Say Anything

  		

The other version that i saw on here wasn't right so i made a good version
I'm pretty sure this is correct.

Tabbed By Ty Crossley(crossty)

Standard Tunning: EADG

Intro
G:--------------------------------------------------------------
D:--------------------------------------------------------------
A:-14-14-12-9-12-7777------14-14-16-14-9-12-7777----------------
E---------------------------------------------------------------

Verse: SAME THING AS THE INTRO JUST LOWER
G:-------------------------------------------------------------
D:-------------------------------------------------------------
A:-------------------------------------------------------------
E:--7-7-7-5-2-5-0000---------7-7-9-7-2-5-0000------------------

Pre Chorus: 
G:-------------------------------------------------------------
D:-------------------------------------------------------------
A:-------------------------------------------------------------
E:--4-4-4-4-4--2-2-2-2-2--0-0-0-0-0-0-0-0-0-0------------------

Chorus:
G:-------------------------------------------------------------
D:-------------------------------------------------------------
A:-2-2-2-2-2---------------------------------------------------
E:-----------------2-2-2-2-2---0-0-0-0-0-0-0-0-0-0-------------

Thing after 2nd chorus and at the end of the 
G:---44--33--11------------------------------------------------
D:------------------44--22-1-0---------------------------------
A:--------------------------------7h9p7------------------------
E:-------------------------------------------------------------


Order:
Intro x4
Verse x2
Pre Chorus x2
Chorus x2
Verse: x4
Pre Chorus x2
Chorus x2
Thing after 2nd chorus: x1
Prechorus x2  (AFTER YOU PLAY THIS JUST PLAY E:7's AND GO UP THE SCALE)
Chorus x4
Thing after 2nd Chorus x1

If you have any corrections or suggestions you can email me at [email protected]

	  

Search Paypal
auto scroll beats size up size down change color hide chords drawings
tab show chords e-chords YouTube Clip e-chords hide all tabs e-chords go to top tab