Good Charlotte

home > Good Charlotte

Riot Girl (ver. 2) Bass Tab

Good Charlotte

Difficulty: nolevelnolevel

tuner correct add songbook print version text version save to e-mail
chordsukulelecavacokeyboardtabbassdrumsharmonicsflute Guitar Pro
chords

Riot Girl (ver. 2)

  		

Band - 
Song - 
Album - The Young And The Hopeless

Riff 1
G--------------
D--------------
A--5-5--6-8-8--
E--------------

Riff 2
G---------------------------------------
D---------------------------------------
A-----------66666666-88888888-66666666--
E--66666666-----------------------------

Riff 3
G------------------------------
D------------------------------
A-----------66666666-88888888--
E--66666666--------------------

Riff 4
G-----------------------------
D-----------------------------
A------6---8---6-------6---8--
E--6---------------6----------

Riff 5
G---------------------------------------
D---------------------------------------
A-----------66666666----------66666666--
E--66666666----------11111111-----------

Riff 6
G-------------------------
D-------------------------
A---------------66666666--
E--66666666---------------

Riff 7
G---------------------------------------
D--------------------11111111-----------
A--11111111-----------------------------
E-----------11111111----------33331111--

Riff 8
G------------------
D------------------
A---------------6--
E--3----1----------

Riff 1   X1
Riff 2   X1
Riff 3   X1
Riff 1   X1
Riff 4   X1
Riff 5   X2
Riff 7   X2
Riff 2   X1
Riff 3   X1
Riff 1   X1
Riff 5   X1
Riff 6   X1
Riff 7   X2
Riff 2   X2
Riff 8   X4
Riff 7   X2

	  

Search Paypal
auto scroll beats size up size down change color hide chords drawings
tab show chords e-chords YouTube Clip e-chords hide all tabs e-chords go to top tab